Song name
# A B C D E F G H I J K L M N O P Q R S T U V W X Y Z

Rudimentary Peni - Dutchmen tab

----------------------------------------------------------------------------
			     Dutchmen - Rudimentary Peni
----------------------------------------------------------------------------

Tabbed by: Ryan
Email: secretsoad@aol.com

Tuning:EADGBe

This is how I play the song, not sure if it's 100 percent accurate.

Intro:
|---------------------------------|
|---------------------------------|
|-2-1-1-1-1-----0-----------------|
|-----------2-3-------------------|
|---------------------------------|
|---------------------------------|
Played 6 times

Verse:
|--------------------------------------------|
|--------------------------------------------|
|--------------------------------------------|
|-5-5-5-5-5-5-5-5-6-6-6-6--------------------|
|-3-3-3-3-3-3-3-3-4-4-4-4-5-5-5-5------------|
|-------------------------3-3-3-3------------|
Played 4 times

|--------------------------------------------|
|--------------------------------------------|
|--------------------------------------------|
|-7-7-7-7-7-7-7-7-8-8-8-8--------------------|
|-5-5-5-5-5-5-5-5-6-6-6-6-7-7-7-7------------|
|-------------------------5-5-5-5------------|
Played 1 time

|--------------------------------------------|
|--------------------------------------------|
|--------------------------------------------|
|-5-5-5-5-5-5-5-5-6-6-6-6--------------------|
|-3-3-3-3-3-3-3-3-4-4-4-4-5-5-5-5------------|
|-------------------------3-3-3-3------------|
Played 1 time then go to chorus

Chorus:
|-------------------------------------------------------------------------|
|-------------------------------------------------------------------------|
|-------------------------------------------------------------------------|
|-5-5-5-5-5-5-5-5-8-8-8-8-8-8-8-8-9-9-9-9-9-9-9-9-12-12-12-12-12-12-12-12-|
|-3-3-3-3-3-3-3-3-6-6-6-6-6-6-6-6-7-7-7-7-7-7-7-7-10-10-10-10-10-10-10-10-|
|-------------------------------------------------------------------------|
Played 1 time

|-------------------------------------------------------------------------|
|-------------------------------------------------------------------------|
|-------------------------------------------------------------------------|
|-5-5-5-5-5-5-5-5-8-8-8-8-8-8-8-8-9-9-9-9-9-9-9-9-3-3-3-3-3-3-3-3---------|
|-3-3-3-3-3-3-3-3-6-6-6-6-6-6-6-6-7-7-7-7-7-7-7-7-1-1-1-1-1-1-1-1---------|
|-------------------------------------------------------------------------|
Played 1 time and then go back to verse

Outro:
|--------------------------------------------|
|--------------------------------------------|
|--------------------------------------------|
|-5-5-5-5-5-5-5-5-6-6-6-6--------------------|
|-3-3-3-3-3-3-3-3-4-4-4-4-5-5-5-5------------|
|-------------------------3-3-3-3------------|
Played 8 times then fade out

Song Breakdown
Intro:
Verse:
Chorus:
Verse:
Chorus:
Outro:

Tap to rate this tab
# A B C D E F G H I J K L M N O P Q R S T U V W X Y Z