Song name
# A B C D E F G H I J K L M N O P Q R S T U V W X Y Z

Rudimentary Peni - In Crematorium Flame tab

Rudimentary Peni - In Crematorium Flame
Archaic EP (2004)
Tabbed By ruker
Standard Tuning EADGBE


Intro (0:00)   4x
||---------------||
||*-------------*||
||---------------||
||--4-----2------||
||*-4-----2-----*||
||--2-----0------||


Verse/Chorus (0:09)
||--------------------------------------------------------------|
||*-------------------------------------------------------------|
||--------------------------------------------------------------|
||--4-4-4-4-4-4-4-4-2-2-2-2-2-2-2-2-4-4-4-4-4-4-4-4-2-2-2-2-2-2-|
||*-4-4-4-4-4-4-4-4-2-2-2-2-2-2-2-2-4-4-4-4-4-4-4-4-2-2-2-2-2-2-|
||--2-2-2-2-2-2-2-2-0-0-0-0-0-0-0-0-2-2-2-2-2-2-2-2-0-0-0-0-0-0-|


|---------------------------------------------------------||
|--------------------------------------------------------*||
|---------------------------------------------------------||
|-6-6-4-4-------------4-----6-6-4-4-------------4---------||
|-4-4-2-2-7-7-6-6-2-2-4-----4-4-2-2-7-7-6-6-2-2-4--------*||
|---------5-5-4-4-0-0-2-------------5-5-4-4-0-0-2---------||


Intro (0:28)   4x
||---------------||
||*-------------*||
||---------------||
||--4-----2------||
||*-4-----2-----*||
||--2-----0------||


Chorus (0:37)
||--------------------------------------------------------------|
||*-------------------------------------------------------------|
||--------------------------------------------------------------|
||--4-4-4-4-4-4-4-4-2-2-2-2-2-2-2-2-4-4-4-4-4-4-4-4-2-2-2-2-2-2-|
||*-4-4-4-4-4-4-4-4-2-2-2-2-2-2-2-2-4-4-4-4-4-4-4-4-2-2-2-2-2-2-|
||--2-2-2-2-2-2-2-2-0-0-0-0-0-0-0-0-2-2-2-2-2-2-2-2-0-0-0-0-0-0-|


|---------------------------------------------------------||
|--------------------------------------------------------*||
|---------------------------------------------------------||
|-6-6-4-4-------------4-----6-6-4-4-------------4---------||
|-4-4-2-2-7-7-6-6-2-2-4-----4-4-2-2-7-7-6-6-2-2-4--------*||
|---------5-5-4-4-0-0-2-------------5-5-4-4-0-0-2---------||


Outro (0:56)
||--------------------------------------------------------||
||--------------------------------------------------------||
||--------------------------------------------------------||
||-6-6-4-4-------------4-----6-6-4-4-------------4--------||
||-4-4-2-2-7-7-6-6-2-2-4-----4-4-2-2-7-7-6-6-2-2-4--------||
||---------5-5-4-4-0-0-2-------------5-5-4-4-0-0-2--------||
Tap to rate this tab
 
# A B C D E F G H I J K L M N O P Q R S T U V W X Y Z