Song name
# A B C D E F G H I J K L M N O P Q R S T U V W X Y Z

Rudimentary Peni - Xn H S tab

Rudimentary Peni - XN.H.S.
Archaic EP (2004)
Tabbed By ruker
Standard Tuning EADGBE

--------------
Key:
--------------
h   Hammer-On
p   Pull-Off
--------------

Intro (0:02)
||-----------------------||
||-----------------------||
||-----------------------||
||-2---------------------||
||-2---------------------||
||-0---------------------||


Riff A (0:06)
||-----------------------------------------||
||*---------------------------------------*||
||------------------------5-4-5-4-5-4-5-4--||
||--2-2-2--5-5-5-5-4-4-4-------------------||
||*-2-2-2--5-5-5-5-4-4-4------------------*||
||--0-0-0--3-3-3-3-2-2-2-------------------||


Chorus (0:15)                              3x
||-------------------------------------------|
||*-----------------------------------------*|
||--------------------------5-5-5-5-5-5-5-5--|
||--2-2-2-2-5-5-5-5-4-4-4-4-5-5-5-5-5-5-5-5--|
||*-2-2-2-2-5-5-5-5-4-4-4-4-3-3-3-3-3-3-3-3-*|
||--0-0-0-0-3-3-3-3-2-2-2-2------------------|


|-----------------------------------------||
|-----------------------------------------||
|-------------------------5-4-5-4-5-4-5-4-||
|-2-2-2-2-5-5-5-5-4-4-4-4-----------------||
|-2-2-2-2-5-5-5-5-4-4-4-4-----------------||
|-0-0-0-0-3-3-3-3-2-2-2-2-----------------||


Riff A (0:34)
||---------------------------------------||
||---------------------------------------||
||-----------------------5-4-5-4-5-4-5-4-||
||-2-2-2--5-5-5-5-4-4-4------------------||
||-2-2-2--5-5-5-5-4-4-4------------------||
||-0-0-0--3-3-3-3-2-2-2------------------||


|------------------------------------------------------||
|------------------------------------------------------||
|-----------------------5p4h5p4h5p4h5p4h5p4h5p4h5p4h5--||
|-2-2-2--5-5-5-5-4-4-4---------------------------------||
|-2-2-2--5-5-5-5-4-4-4---------------------------------||
|-0-0-0--3-3-3-3-2-2-2---------------------------------||


Chorus (0:42)                              6x
||-------------------------------------------||
||*-----------------------------------------*||
||--------------------------5-5-5-5-5-5-5-5--||
||--2-2-2-2-5-5-5-5-4-4-4-4-5-5-5-5-5-5-5-5--||
||*-2-2-2-2-5-5-5-5-4-4-4-4-3-3-3-3-3-3-3-3-*||
||--0-0-0-0-3-3-3-3-2-2-2-2------------------||


Outro (1:09)
||-----------------------||
||-----------------------||
||-----------------------||
||-2---------------------||
||-2---------------------||
||-0---------------------||
Tap to rate this tab
 
# A B C D E F G H I J K L M N O P Q R S T U V W X Y Z