Song name
# A B C D E F G H I J K L M N O P Q R S T U V W X Y Z

Rudimentary Peni - Media Person tab

Help us improve GuitareTab! Take a short survey!
-----------------------------------------------------------------
Media Person - Rudimentary Peni
-----------------------------------------------------------------
Tabbed by: Dillon
Email: Angelic_oioi_upstart@yahoo.com

Tuning:Standard

Verse
e|---------------------------------------------------------------|
B|---------------------------------------------------------------|
G|----77---------------------------------------------------------|
D|-55-77-77-88---------------------------------------------------|
A|-55-55-77-88---------------------------------------------------|
E|-33----55-66---------------------------------------------------|

Chorus:
e|---------------------------------------------------------------|
B|---------------------------------------------------------------|
G|---------------------------------------------------------------|
D|-55555555-22222222---------------------------------------------|
A|-55555555-22222222---------------------------------------------|
E|-33333333-00000000---------------------------------------------|

| / slide up
| \ slide down
| h hammer-on
| p pull-off
| ~ vibrato
| + harmonic
| x Mute note

#----------------------------------PLEASE NOTE---------------------------------#
#This file is the author's own work and represents their interpretation of the #
#song. You may only use this file for private study, scholarship, or research. #
#------------------------------------------------------------------------------#
Related for Media Person tab