Song name
# A B C D E F G H I J K L M N O P Q R S T U V W X Y Z

Rudimentary Peni - Farce tab

Help us improve GuitareTab! Take a short survey!
-------------------------------------------------------------------------------
Farce - Rudimentary Peni
EPs of RP
-------------------------------------------------------------------------------
Tabbed by: axeslash
Email: holmzito@yahoo.com

Tuning: EADGBE

e|-----------------------------------------|
B|-----------------------------------------|
G|------------------------------------5----|
D|-4----7----4----5----4----7----4----5----|
A|-4----7----4----3----4----7----4----3----|
E|-2----5----2----3----2----5----2---------| x7

e|-------------------------------------------|
B|-------------------------------------------|
G|----------------5-------------------5------|
D|-4----7----4----5----4----7----4----5----4-|
A|-4----7----4----3----4----7----4----3----4-|
E|-2----5----2---------2----5----2---------2-| 


| /  slide up
| \  slide down
| h  hammer-on
| p  pull-off
| ~  vibrato
| +  harmonic
| x  Mute note
===============================================================================
Related for Farce tab