Song name
# A B C D E F G H I J K L M N O P Q R S T U V W X Y Z

Rudimentary Peni - Bloody Jellies tab

Help us improve GuitareTab! Take a short survey!
intro:
e|------------------------------------------------------------------------|
B|------------------------------------------------------------------------|
G|-9-8-7-6-5-4-3----------------------------------------------------------|
D|-9-8-7-6-5-4-3-7-6-5-4-3-2----------------------------------------------|
A|-7-6-5-4-3-2-1-7-6-5-4-3-2----------------------------------------------|
E|---------------5-4-3-2-1-0----------------------------------------------|

verse:
e|------------------------------------------------------------------------|
B|------------------------------------------------------------------------|
G|-77777-777558-----------------------------------------------------------|
D|-77777-777558-----------------------------------------------------------|
A|-55555-555336-----------------------------------------------------------|
E|------------------------------------------------------------------------|

Chorus:
e|------------------------------------------------------------------------|
B|------------------------------------------------------------------------|
G|--4444-6666-4444-6666-8888-10101010-8888-10101010-----------------------|
D|--4444-6666-4444-6666-8888-10101010-8888-10101010-----------------------|
A|--2222-4444-2222-4444-6666-8-8-8-8--6666-8-8-8-8------------------------|
E|------------------------------------------------------------------------|

thats it i guess.
questions?  crust_and_anguish_life@yahoo.com
Related for Bloody Jellies tab