Song name
# A B C D E F G H I J K L M N O P Q R S T U V W X Y Z

Rudimentary Peni - 1-4 Dead tab

-------------------------------------------------------------------------------
1/4 Dead - Rudimentary Peni
Death Church
-------------------------------------------------------------------------------
Tabbed by: axeslash
Email: holmzito@yahoo.com

Tuning:
Guitar 1: EADGBE (Standard)

e|---------------------------------|
B|---------------------------------|
G|---------------------------------|
D|-2-2-2-2-5-5-5-5-4-4-4-4-4-4-4-4-|
A|-2-2-2-2-5-5-5-5-4-4-4-4-4-4-4-4-|
E|-0-0-0-0-3-3-3-3-2-2-2-2-2-2-2-2-| x2

e|---------------------------------|
B|---------------------------------|
G|---------------------------------|
D|-5-5-5-5-4-4-4-4-7-7-7-7-7-7-7-7-|
A|-5-5-5-5-4-4-4-4-7-7-7-7-7-7-7-7-|
E|-3-3-3-3-2-2-2-2-5-5-5-5-5-5-5-5-| x2

e|---------------------------------|
B|---------------------------------|
G|---------------------------------|
D|-9-9-9-9-5-5-5-5-7-7-7-7-7-7-7-7-|
A|-9-9-9-9-5-5-5-5-7-7-7-7-7-7-7-7-|
E|-7-7-7-7-3-3-3-3-5-5-5-5-5-5-5-5-| x4

Tempo Steadily Increases

e|---------------------------------|
B|---------------------------------|
G|---------------------------------|
D|-2-2-2-2-5-5-5-5-4-4-4-4-4-4-4-4-|
A|-2-2-2-2-5-5-5-5-4-4-4-4-4-4-4-4-|
E|-0-0-0-0-3-3-3-3-2-2-2-2-2-2-2-2-| x2

e|---------------------------------|
B|---------------------------------|
G|---------------------------------|
D|-5-5-5-5-4-4-4-4-7-7-7-7-7-7-7-7-|
A|-5-5-5-5-4-4-4-4-7-7-7-7-7-7-7-7-|
E|-3-3-3-3-2-2-2-2-5-5-5-5-5-5-5-5-| x2

e|---------------------------------|    
B|---------------------------------|    
G|---------------------------------|    
D|-9-9-9-9-5-5-5-5-7-7-7-7-7-7-7-7-|    
A|-9-9-9-9-5-5-5-5-7-7-7-7-7-7-7-7-|    
E|-7-7-7-7-3-3-3-3-5-5-5-5-5-5-5-5-| x4 

Return To Original Tempo

e|------------------|
B|------------------|
G|------------------|
D|-7----------------|
A|-7----------------|
E|-5----------------|

e|-----------------------------------------------------|
B|-----------------------------------------------------|
G|-------------------------0-0-0-0-3^--2~~~~-----------|
D|---------2-2-2-2-3-3-3-3-------------3~~~~-----------|
A|-0-0-0-0---------------------------------------------|
E|-----------------------------------------------------|

|  ^   bend up 1/4 step
| [x]  palm mute
|  /   slide up
|  \   slide down
|  h   hammer-on
|  p   pull-off
|  ~   vibrato
|  +   harmonic
|  x   Mute note
===============================================================================
Tap to rate this tab
 
# A B C D E F G H I J K L M N O P Q R S T U V W X Y Z