Song name
# A B C D E F G H I J K L M N O P Q R S T U V W X Y Z

Rudimentary Peni - Psycho Squat tab

Help us improve GuitareTab! Take a short survey!
-----------------------------------------------------------------------------
			     THE PSYCHO SQUAT - Rudimentary Peni
-----------------------------------------------------------------------------
Tabbed by: Dman
Email: dima_zador@yahoo.com

Tuning: EADBGe

Part A
e|----------------------------------------------------------------------------|
B|----------------------------------------------------------------------------|
G|----------5-5-5-5--11111111-5-5-5-5-----------------------------------------|
D|-4-4-4-4--5-5-5-5--11111111-5-5-5-5-----------------------------------------|
A|-4-4-4-4--3-3-3-3--9-9-9-9--3-3-3-3-----------------------------------------|
E|-2-2-2-2--------------------------------------------------------------------|

Part B
e|---------------------------------------------------------------------------|
B|---------------------------------------------------------------------------|
G|------------------7-7-7-7-7-7-7-7------------------------------------------|
D|-6-6-6-6-6-6-6-6--7-7-7-7-7-7-7-7------------------------------------------|
A|-6-6-6-6-6-6-6-6--5-5-5-5-5-5-5-5------------------------------------------|
E|-4-4-4-4-4-4-4-4-----------------------------------------------------------|

ends on G#5.

| /  slide up
| \  slide down
| h  hammer-on
| p  pull-off
| ~  vibrato
| +  harmonic
| x  Mute note
=============================================================================
Related for Psycho Squat tab