Song name
# A B C D E F G H I J K L M N O P Q R S T U V W X Y Z

Rudimentary Peni - Poppycock tab

-----------------------------------------------------------------------------
			     POPPYCOCK - Rudimentary Peni
-----------------------------------------------------------------------------
Tabbed by: Dman
Email: dima_zador@yahoo.com

Tuning: EADGBe

Intro/Outro
e|---------------------------------------------------------------------------|
B|---------------------------------------------------------------------------|
G|----------------------------88888888---------------------------------------|
D|-------------------77777777------------------------------------------------|
A|----------66666666---------------------------------------------------------|
E|-55555555------------------------------------------------------------------|

Verse
e|---------------------------------------------------------------------------|
B|---------------------------------------------------------------------------|
G|----------6-6-------7-7-7-7--8-8--5-5--------------------------------------|
D|-7-7-7-7--6-6--5-5--7-7-7-7--8-8--5-5--------------------------------------|
A|-7-7-7-7--4-4--5-5--5-5-5-5--6-6--3-3--------------------------------------|
E|-5-5-5-5-------3-3---------------------------------------------------------|

| /  slide up
| \  slide down
| h  hammer-on
| p  pull-off
| ~  vibrato
| +  harmonic
| x  Mute note
=============================================================================
Tap to rate this tab
# A B C D E F G H I J K L M N O P Q R S T U V W X Y Z