Song name
# A B C D E F G H I J K L M N O P Q R S T U V W X Y Z

Rudimentary Peni - Media Friend tab

email:magitsarchaic@yahoo.com
Media Friend/Ep's of Rp/Rudimentary Peni

Verse:

1|-----------------------------|
2|-----------------------------|
3|10-11-11-11-11-11-6-7-7-7-7-7|
4|11-12-12-12-12-12-7-8-8-8-8-8|
5|11-12-12-12-12-12-7-8-8-8-8-8|
6|-9-10-10-10-10-10-5-6-6-6-6-6|

Chorus:

1|-------------------------------|
2|-------------------------------|
3|4-4-4-4-4-4-4-4----------------|
4|5-5-5-5-5-5-5-5----------------|
5|5-5-5-5-5-5-5-5-2-2-2-2-2-2-2-2|
6|3-3-3-3-3-3-3-3-0-0-0-0-0-0-0-0|

End

1|----------|
2|----------|
3|11-11-11-4|
4|12-12-12-5|
5|12-12-12-5|
6|10-10-10-3|
Tap to rate this tab
 
# A B C D E F G H I J K L M N O P Q R S T U V W X Y Z