Song name
# A B C D E F G H I J K L M N O P Q R S T U V W X Y Z

Rudimentary Peni - B Ward tab

email:magitsarchaic@yahoo.com
B Ward/Ep's of Rp/Rudimentary Peni

note:this is my favorite song by rudimentary peni and it's probably the only song by 
that im absolutely sure ive got 100% correct unlike the other ones i posted.

Verse/Chorus:

1|-----------------------------------------------|
2|-----------------------------------------------|
3|8---11-11-11-11-12-12-12-12-11-11-11-11-11--9-8|
4|9---12-12-12-12-13-13-13-13-12-12-12-12-12-10-9|
5|9---12-12-12-12-13-13-13-13-12-12-12-12-12-10-9|
6|7---10-10-10-10-11-11-11-11-10-10-10-10-10--8-7|

Bridge:

1|--------------------------------------|
2|--------------------------------------|
3|-9--9--9--9-7-7-7-7-4-4-7-10--10-10-10|
4|10-10-10-10-8-8-8-8-5-5-8-11--11-11-11|
5|10-10-10-10-8-8-8-8-5-5-8-11--11-11-11|
6|-8--8--8--8-6-6-6-6-3-3-6--9---9--9--9|

End:

1|------------------------------------------------------------------------|
2|------------------------------------------------------------------------|
3|------------------------------------------------------------------------|
4|------------------------------------------------------------------------|
5|------------------------------------------------12-12-12-12-12-12-12-12-|
6|10-10-10-10-10-10-10-10-10-10-10-10-10-10-10-10-10-10-10-10-10-10-10-10-|

1|-----------------------------|
2|-----------------------------|
3|------------------------^11\8|
4|-----------------------------|
5|12-12-12-12-12-12-12-12------|
6|10-10-10-10-10-10-10-10------|
Tap to rate this tab
 
# A B C D E F G H I J K L M N O P Q R S T U V W X Y Z