Song name
# A B C D E F G H I J K L M N O P Q R S T U V W X Y Z

Rudimentary Peni - Blissful Myth tab

Help us improve GuitareTab! Take a short survey!
This is how i play it. feel free to send all comments/questions to 
hardys4nik@yahoo.com
please dont flame. its my first tab. 


[intro]
|----------------------------------------------------------------------|
|----------------------------------------------------------------------|
|----------------------------------------------------------------------|
|----------------------------------------------------------------------|
|-5-5-4-4-4-4-4-4-4-4-3-3-2-2-2-2-2-2-2-2------------------------------|
|-----------------------------------------3-3-2-2-2-2-2-2-2-2----------|

|----------------------------------------------------------------------|
|----------------------------------------------------------------------|
|----------------------------------------------------------------------|
|----------------------------------------------------------------------|
|----------------------------------------------------------------------|
|-1-1-0-0-0-0-0-0-0-0--------------------------------------------------|
Play this two (2) times.





|----------------------------------------------------------------------|
|----------------------------------------------------------------------|
|----------------------------------------------------------------------|
|-7-7-6-6-6-6-6-6-6-6-5-5-4-4-4-4-4-4-4-4------------------------------|
|-5-5-4-4-4-4-4-4-4-4-3-3-2-2-2-2-2-2-2-2--5-5-4-4-4-4-4-4-4-4---------|
|------------------------------------------3-3-2-2-2-2-2-2-2-2---------|

|----------------------------------------------------------------------|
|----------------------------------------------------------------------|
|----------------------------------------------------------------------|
|----------------------------------------------------------------------|
|-3-3-2-2-2-2-2-2-2-2--------------------------------------------------|
|-1-1-0-0-0-0-0-0-0-0--------------------------------------------------|
Play this five (5) times.



|----------------------------------------------------------------------|
|----------------------------------------------------------------------|
|----------------------------------------------------------------------|
|-10-10--9-9-9-9-9-9-9-9--------5--------------------------------------|
|-8--8---7-7-7-7-7-7-7-7--------3----2---------------------------------|
|------------------------------------0---------------------------------|

listen to song for the right timing. play this three (3) times, then play one (1) more time like this:




|----------------------------------------------------------------------|
|----------------------------------------------------------------------|
|----------------------------------------------------------------------|
|-10-10--9-9-9-9-9-9-9-9---11-11-11-11-11-11-11-11---------------------|
|-8--8---7-7-7-7-7-7-7-7---9--9--9--9--9--9--9--9----------------------|
|----------------------------------------------------------------------|
then its back to this:






|----------------------------------------------------------------------|
|----------------------------------------------------------------------|
|----------------------------------------------------------------------|
|-7-7-6-6-6-6-6-6-6-6-5-5-4-4-4-4-4-4-4-4------------------------------|
|-5-5-4-4-4-4-4-4-4-4-3-3-2-2-2-2-2-2-2-2--5-5-4-4-4-4-4-4-4-4---------|
|------------------------------------------3-3-2-2-2-2-2-2-2-2---------|

|----------------------------------------------------------------------|
|----------------------------------------------------------------------|
|----------------------------------------------------------------------|
|----------------------------------------------------------------------|
|-3-3-2-2-2-2-2-2-2-2--------------------------------------------------|
|-1-1-0-0-0-0-0-0-0-0--------------------------------------------------|

play this six (6) times. 

and there you go. really easy song. fun to jam to. well have fun!!!!



Related for Blissful Myth tab