Song name
# A B C D E F G H I J K L M N O P Q R S T U V W X Y Z

Rudimentary Peni - Cosmic Hearse tab

-------------------------------------------------------------------------------
Cosmic Hearse - Rudimentary Peni
Death Church
-------------------------------------------------------------------------------
Tabbed by: axeslash
Email: holmzito@yahoo.com

Tuning:  Guitar 1: EADGBE
         Guitar 2: EADGBE

Guitar 1:
e|---------------------------------|
B|---------------------------------|
G|-9-------------------------------|
D|---------------------------------|
A|---------------------------------|
E|---------------------------------| x5
Guitar 2:
e|---------------------------------|
B|---------------------------------|
G|---------------------------------|
D|-2-2-2-2-5-5-5-5-4-4-4-4-7-7-7-7-|
A|-2-2-2-2-5-5-5-5-2-2-2-2-5-5-5-5-|
E|-0-0-0-0-3-3-3-3-2-2-2-2-5-5-5-5-| x5

Guitar 1
e|-----------------------------------------------------------------|
B|-8-------------------------------9-------------------------------|
G|-----------------------------------------------------------------|
D|-----------------------------------------------------------------|
A|-----------------------------------------------------------------|
E|-----------------------------------------------------------------|
Guitar 2:                            
e|-----------------------------------------------------------------|
B|-----------------------------------------------------------------|
G|-----------------------------------------------------------------|
D|-6-6-6-6-6-6-6-6-6-6-6-6-6-6-6-6-7-7-7-7-7-7-7-7-7-7-7-7-7-7-7-7-|
A|-6-6-6-6-6-6-6-6-6-6-6-6-6-6-6-6-7-7-7-7-7-7-7-7-7-7-7-7-7-7-7-7-|
E|-4-4-4-4-4-4-4-4-4-4-4-4-4-4-4-4-5-5-5-5-5-5-5-5-5-5-5-5-5-5-5-5-|

e|-----------------------------------------------------------------|
B|-8-------------------------------9-------------------------------|
G|-----------------------------------------------------------------|
D|-----------------------------------------------------------------|
A|-----------------------------------------------------------------|
E|-----------------------------------------------------------------|
Guitar 2:                            
e|-----------------------------------------------------------------|
B|-----------------------------------------------------------------|
G|-----------------------------------------------------------------|
D|-6-6-6-6-6-6-6-6-6-6-6-6-6-6-6-6-7-7-7-7-7-7-7-7-----------------|
A|-6-6-6-6-6-6-6-6-6-6-6-6-6-6-6-6-7-7-7-7-7-7-7-7-----------------|
E|-4-4-4-4-4-4-4-4-4-4-4-4-4-4-4-4-5-5-5-5-5-5-5-5-----------------|


| /  slide up
| \  slide down
| h  hammer-on
| p  pull-off
| ~  vibrato
| +  harmonic
| x  Mute note
===============================================================================
Tap to rate this tab
# A B C D E F G H I J K L M N O P Q R S T U V W X Y Z