Song name
# A B C D E F G H I J K L M N O P Q R S T U V W X Y Z

Rue Royale - Blame tab

Tabbed By: Dięgo Palmeira
Song By: Rue Royale

Intro/Verse:

E|-----------------------------|
A|-8---7---6-------------------|
D|-------------6---------------|
G|-8---8---8---8---------------|
B|-9---9---9---9---------------|
E|-----------------------------|


Chorus:

E|-----------------------------|
A|--6---3---1------------------|
D|-----------------------------|
G|--6---3---1------------------|
B|--7---4---2------------------|
E|-----------------------------|


Outro:

E|--2--3-----------------------|
A|---------2---0----0-0-0------|
D|--0--0---0---0---------------|
G|--2--2---2---2---------------|
B|-----------------------------|
E|-----------------------------|
Tap to rate this tab
# A B C D E F G H I J K L M N O P Q R S T U V W X Y Z