Song name
# A B C D E F G H I J K L M N O P Q R S T U V W X Y Z

Rue Royale - Guide To An Escape tab

-------------------------- Rue Royale ---------------------------------------
----------------------- Guide To An Escape ----------------------------------

Tabbed By: Dięgo Palmeira

-->(Capo on 1)<---

Verse/Intro

Caught in the tide caught in a slide
Hoping that i will... 

E|-----------------------------|
A|--3--------------------------|
D|--2--------------------------|
G|--0--------------------------|
B|--1--------------------------|
E|-----------------------------|
...learn to survive
E|---1-------------------------|
A|---3-------------------------|
D|---3-------------------------|
G|---2-------------------------|
B|-----------------------------|
E|-----------------------------|

Eye on the time as it goes by
Losing the light...
E|-----------------------------|
A|--3--------------------------|
D|--2--------------------------|
G|--0--------------------------|
B|--1--------------------------|
E|-----------------------------|
...Fading the lines
E|---1-------------------------|
A|---3-------------------------|
D|---3-------------------------|
G|---2-------------------------|
B|-----------------------------|
E|-----------------------------|

Chorus:

If you would be my guide to an escape
If you would be my guide we'd be alright 

E|---3----------3--------------|
A|---5----------2--------------|
D|---5----------0--------------|
G|---7----------1--------------|
B|-----------------------------|
E|-----------------------------|

E|---1-------------------------|
A|---3-------------------------|
D|---3-------------------------|
G|---2-------------------------|
B|-----------------------------|
E|-----------------------------| (2x)

(Back to verse tab in this part: )

Clawing the gates of every estate
There on my way until i find your place
Confusing my brain all of the ways
I could not take that look on your face

Solo: G, C, F

G  C  F
Oooh, Oooh

G                  C            F
Ooh you would be my guide to an escape (2x)

End with:

E|---1-------------------------|
A|---3-------------------------|
D|---3-------------------------|
G|---2-------------------------|
B|-----------------------------|
E|-----------------------------|
Tap to rate this tab
# A B C D E F G H I J K L M N O P Q R S T U V W X Y Z