Song name
# A B C D E F G H I J K L M N O P Q R S T U V W X Y Z

Rue Royale - Get Me Standing tab

------------------------- Rue Royale ----------------------------------------
------------------------ Get Me Standing ------------------------------------


Tabbed By: Dięgo Palmeira


--> (Capo on 1) <--

Intro/Verse:

E|---------------------3----3--|
A|--3-----6-----6--------------|
D|--0-----0-----0------0----0--|
G|--0-----0-----0------0----0--|
B|-----0-----0-----0-----------|
E|-----------------------------|

Solo:

E|----0-----0-----0------------|
A|-----------------------------|
D|-----------------------------|
G|----0-----0-----0------------|
B|-----------------------------|
E|-----------------------------|


So, back to the first tab:

E|---------------------3----3--|
A|--3-----6-----6--------------|
D|--0-----0-----0------0----0--|
G|--0-----0-----0------0----0--|
B|-----0-----0-----0-----------|
E|-----------------------------|
Tap to rate this tab
 
# A B C D E F G H I J K L M N O P Q R S T U V W X Y Z