Song name
# A B C D E F G H I J K L M N O P Q R S T U V W X Y Z

Rue Royale - Get Me Standing tab

Tabbed by: Kadima
E-mail:johu2000-us@yahoo.de

Standard Tuning, Capo on 1st
 

|----------------|----------------|----------------|----------------|
|------------0---|------------0---|------------0---|----------------|
|------0---0---0-|------0---0---0-|------0---0---0-|----0-------0---|
|--0-------------|--0-------------|--0-------------|--0---0---0---0-|
|3---3---3-------|2---2---2-------|0---0---0-------|----------------|
|----------------|----------------|----------------|0-------3-------|


 would you mind would you mind to take with me some time tonight
 to get me standing on two feet to get me postured upright
 to these blacked out eyes to see what they were too black to see
                  would you mind 
                  would you mind

 would you dare would you dare pretend to know me when i stare
 when i m sleeping point at me point your finger directly
 pen it down as if where true all that you accuse
                  would you dare 
                  would you dare


 would you see would you see that my mind's occupied with fearing
 i keep a tight grip on the feeling that keeps me from healing
 big ideas that fall too short they fall right through my ceiling
                  would you see
                  would you see
                  would you see
                  would you see

|----------------|
|----------------|
|----------------|  
|--0---0---0---0-|
|----------------|
|0---0---0---0---| 10x, then back to first riff
Tap to rate this tab
# A B C D E F G H I J K L M N O P Q R S T U V W X Y Z