Song name
# A B C D E F G H I J K L M N O P Q R S T U V W X Y Z

Rue Royale - Guide To An Escape tab

Tabbed by: Kadima
E-mail:johu2000-us@yahoo.de

Standard tuning, Capo on 1st

|1---2---3---4---|1---2---3---4---|1---2---3---4---|1---2---3---4---|

Verse: 

|Am                                                                 |
|----------------|----------------|----------------|----------------|
|------1-------1-|------1---------|------1-------1-|----------------|
|----2-----2-----|--2-------2-----|----2-----2-----|----------------|
|--2---------2---|----2-------0h2-|--2---------2---|--2---2---2-----|
|0-------0-------|0-------0-------|0-------0-------|0---3---0-----0-|
|----------------|----------------|----------------|------------0---|

|F                                                                  |
|----------------|----------------|----------------|----------------|
|----------------|----------------|----------------|----------------|
|------2-------2-|------2---------|------2-------2-|------2---------|
|----3-----3-----|--3-------3-----|----3-----3-----|--3-------3---3-|
|--3---------3---|----3-------3---|--3---------3---|----3-------3---|
|1-------1-------|1-------1-----0-|1-------1-------|1-------1-------|

Chorus

|G                                |C               |
|----------------|----------------|----------------|
|----------------|----------------|------1-------0-|
|------4-------4-|------4---------|----0-----0-----|
|----5-----5-----|--5-------5---5-|--2---------2---|
|--5---------5---|----5-------5---|3-------3-------|
|3-------3-------|3-------3-------|----------------|

|F                                                                  |
|----------------|----------------|----------------|----------------|
|----------------|----------------|----------------|----------------|
|------2-------2-|------2---------|------2-------2-|------2---------|
|----3-----3-----|--3-------3-----|----3-----3-----|--3-------3---3-|
|--3---------3---|----3-------3---|--3---------3---|----3-------3---|
|1-------1-------|1-------1-----0-|1-------1-------|1-------1-------|

|G                                |C               |
|----------------|----------------|----------------|----------------|
|----------------|----------------|------1-------1-|------1-------1-|
|------4-------4-|------4---------|----0-----0-----|--0-------0-----|
|----5-----5-----|--5-------5---5-|--2---------2---|----2-------2---|
|--5---------5---|----5-------5---|3-------3-------|3-------3-------|
|3-------3-------|3-------3-------|----------------|----------------|

|F                                                                  |
|----------------|----------------|----------------|----------------|
|----------------|----------------|----------------|----------------|
|------2-------2-|------2---------|------2-------2-|------2---------|
|----3-----3-----|--3-------3-----|----3-----3-----|--3-------3---3-|
|--3---------3---|----3-------3---|--3---------3---|----3-------3---|
|1-------1-------|1-------1-----0-|1-------1-------|1-------1-------|


Intro: Am F Am F

Verse:
Am   
caught in the tide caught in a slide
                   F
hoping that i will learn to survive
Am
eye on the time as it goes by
                 F
losing the light fading the lines

Chorus:

G                      C             F
Oh, if you would be my guide to an escape
G                      C               F
Oh, if you would be my guide we'd be alright

Verse:
Am                   
clawing the gates of every estate
                      F
there on my way 'til i find your place
Am
confusing my brain all of the ways
                      F
i could not take that look on your face

Chorus 2x

Outro: G C F 6x
Tap to rate this tab
# A B C D E F G H I J K L M N O P Q R S T U V W X Y Z