Song name
# A B C D E F G H I J K L M N O P Q R S T U V W X Y Z

Rue Royale - Blame tab

Rue Royale - Blame
Website: http://rueroyalemusic.com
Tabbed by: Frits van der Steege

(To play along with CD, tune down half a note)
Picking pattern is pretty straightforward, just listen to the song a few times.


Intro + Verse:
E|-----------------|
B|-10--10--10--10--|
G|--9---9---9---9--|
D|-----------------|
A|--9---8---7---0--|
E|-----------------|

Chorus:
E|-----------------|
B|--8---5---3---3--|
G|--7---4---2---2--|
D|-----------------|
A|--7---4---2---2--|
E|-----------------|

Outro:
E|-----------------|
B|-----------------|
G|--2---2---2---2--|
D|--0---0---0---0--|
A|----------2---0--|
E|--2---3----------|
Tap to rate this tab
# A B C D E F G H I J K L M N O P Q R S T U V W X Y Z