Song name
# A B C D E F G H I J K L M N O P Q R S T U V W X Y Z

Rue Royale - Knocked Back To The Start tab

-------------------------- Rue Royale -----------------------------------------
----------------------- Knocked Back To The Start -----------------------------

Tabbed By: Dięgo Palmeira

In this tab you have to down half-step tuning.

Intro:

D#|-----------------------------|
A#|-----------------------------|
F#|--0--0--0---0--0--0----------|
C#|--7--7--7---2--2--2----------|
G#|--7--7--7---2--2--2----------|
D#|--5--5--5---0--0--0----------|

D#|-----------------------------|
A#|-----------------------------|
F#|-9---9---9---2--2--2--4-4-4--|
C#|-10--10--10--3--3--3--5-5-5--|
G#|-10--10--10--3--3--3--5-5-5--|
D#|-8---8---8---1--1--1--3-3-3--|

Verse:

And right before my single eye... 
D#|-----------------------------|
A#|-----------------------------|
F#|--0--0--0---0--0--0----------|
C#|--7--7--7---2--2--2----------|
G#|--7--7--7---2--2--2----------|
D#|--5--5--5---0--0--0----------|

You laid down flat a plan of fight... 
D#|-----------------------------|
A#|-----------------------------|
F#|-9---9---9---2--2--2--4-4-4--|
C#|-10--10--10--3--3--3--5-5-5--|
G#|-10--10--10--3--3--3--5-5-5--|
D#|-8---8---8---1--1--1--3-3-3--|

Aaaah, Aaaah

D#|-----------------------------|
A#|-----------------------------|
F#|--0-0-0---9--9----4-4-4------|
C#|--7-7-7---10-10---5-5-5------|
G#|--7-7-7---10-10---5-5-5------|
D#|--5-5-5---8--8----3-3-3------|

Chorus: 

I've heard it all before and learned to ignore ,
I wanted so much more than they intended for...
D#|-----------------------------|
A#|-----------------------------|
F#|--2-2-2---4-4-4--------------|
C#|--3-3-3---5-5-5--------------|
G#|--3-3-3---5-5-5--------------|
D#|--1-1-1---3-3-3--------------|

And it took my heart...
D#|-----------------------------|
A#|-----------------------------|
F#|--2-2-2---4-4-4---9--9-------|
C#|--3-3-3---5-5-5---10-10------|
G#|--3-3-3---5-5-5---10-10------|
D#|--1-1-1---3-3-3---8--8-------|

Knocked back to the start
D#|-----------------------------|
A#|-----------------------------|
F#|--2-2-2---4-4-4--------------|
C#|--3-3-3---5-5-5--------------|
G#|--3-3-3---5-5-5--------------|
D#|--1-1-1---3-3-3--------------|  

(Repeat whole tab)
Tap to rate this tab
# A B C D E F G H I J K L M N O P Q R S T U V W X Y Z