Song name
# A B C D E F G H I J K L M N O P Q R S T U V W X Y Z

Rue Royale - Foreign Night tab

-------------------------------- Rue Royale ---------------------------------
------------------------------- Foreign Night -------------------------------

Tabbed By: Dięgo Palmeira


(Capo on 4)


Intro:

E|----------------------------|
B|--0--0--0----0--0--0--------|
G|--4--4--5----0--0--0--------|
D|--5--5--4----2--2--2--------|
A|--5--5--5----2--2--2--------|
E|-------------0--0--0--------|

Verse:

On a foreign night we spoke
Telling stories of what it would be like when we got back home
E|----------------------------|
B|--0--0--0----0--0--0--------|
G|--4--4--5----0--0--0--------|
D|--5--5--4----2--2--2--------|
A|--5--5--5----2--2--2--------|
E|-------------0--0--0--------|

In the fading light we hoped
That as we grew old those memories would never let us go
E|----------------------------|
B|--0--0--0----0--0--0--------|
G|--4--4--5----0--0--0--------|
D|--5--5--4----2--2--2--------|
A|--5--5--5----2--2--2--------|
E|-------------0--0--0--------|


Chorus (Strumming):

When we're together we survive 
to stick it out another night of waiting
E|----------------------------|
B|----------------------------|
G|-0-0-0--0-0-0--0-0-0--0-0-0-|
D|-0-0-0--0-0-0--0-0-0--0-0-0-|
A|-7-7-7--5-5-5--3-3-3--2-2-2-|
E|-5-5-5--3-3-3--1-1-1--0-0-0-|

We dream together to survive 
to stick it out another night of waiting
E|----------------------------|
B|----------------------------|
G|-0-0-0--0-0-0--0-0-0--0-0-0-|
D|-0-0-0--0-0-0--0-0-0--0-0-0-|
A|-7-7-7--5-5-5--3-3-3--2-2-2-|
E|-5-5-5--3-3-3--1-1-1--0-0-0-|

Pont:

E|----------------------------|
B|-1-1-1-1--------------------|
G|-0-0-0-0----2-2-2-2---------|
D|-2-2-2-2----3-3-3-3---------|
A|-2-2-2-2----3-3-3-3---------|
E|-0-0-0-0----1-1-1-1---------|

End with this:

E|----------------------------|
B|----------------------------|
G|----------------------------|
D|----------------------------|
A|----------------------------|
E|--5-------------------------|
Tap to rate this tab
 
# A B C D E F G H I J K L M N O P Q R S T U V W X Y Z