Song name
# A B C D E F G H I J K L M N O P Q R S T U V W X Y Z

Rue Royale - Flightline tab

-------------------------- Rue Royale -----------------------------------------
-------------------------- Flightline -----------------------------------------

Tabbed by: Dięgo Palmeira


Intro:

E|----------------------------|
B|--0--0--0--0----------------|
G|--1--1--1--1----------------|
D|----------------------------|
A|----------------------------|
E|--0--0--0--0----------------|

Verse:

 And in a moment and in one instant 
E|----------------------------|
B|--0--0--0--0----------------|
G|--1--1--1--1----------------|
D|----------------------------|
A|----------------------------|
E|--0--0--0--0----------------|

 I throw the whole of it away 
E|----------------------------|
B|--2--2--2--2----------------|
G|--1--1--1--1----------------|
D|----------------------------|
A|----------------------------|
E|--0--0--0--0----------------|

 And you could not imagine all the damage 
I would do if there were more time. 
E|----------------------------|
B|--5-5-5---0-0-0---2-2-2-----|
G|--0-0-0---1-1-1---0-0-0-----|
D|----------------------------|
A|----------------------------|
E|--5-5-5---0-0-0---3-3-3-----|

 Because the rubble left behind me
Is only guilty of being in my flight line 
E|----------------------------|
B|--5-5-5---0-0-0---2-2-2-----|
G|--0-0-0---1-1-1---0-0-0-----|
D|----------------------------|
A|----------------------------|
E|--5-5-5---0-0-0---3-3-3-----|

Pont: 

E|----------------------------|
B|--0-0-0-0----2-2-2----------|
G|--1-1-1-1----1-1-1----------|
D|----------------------------|
A|----------------------------|
E|--0-0-0-0----0-0-0----------|

And in the morning and when i'm waking
I try to start a brand new day
And in the morning and when i'm waking
I try to start a brand new day
And even i could not imagine
All the innocent that i would take down
Because the rubble left behind me
Is only guilty of being in my flight line

And after moving and in my leaving
I feel the pain of my mistake
And after moving and in my leaving
I feel the pain of my mistake
And we were beautiful together
Until selfishly i tore it all down
Because the rubble left behind me
Is only guilty of being in my flight line
Tap to rate this tab
# A B C D E F G H I J K L M N O P Q R S T U V W X Y Z