Song name
# A B C D E F G H I J K L M N O P Q R S T U V W X Y Z

Rufio - Questions And Answers tab

Drop D

Guitar 1
e|-------------------------------------------------------------------|
B|-------------------------------------------------------------------|
G|-------------------------------------------------------------------|
D|-----------2-----------------------2-------------------------------|
A|-----2--4----4--0--2--4------2--4-----4--0--2--4-------------------|
D|--4-----------------------4----------------------------------------|

Guitar 1
e|-------------------------------------------------------------------|
B|-------------------------------------------------------------------|
G|-------------------------------------------------------------------|
D|-----------2-----------------------2-------------------------------|
A|-----2--4----4--0--2--4------2--4-----4--0--2--4-------------------|
D|--0------------------------0---------------------------------------|
Guitar 2
e|-------------------------------------------------------------------|
B|-------------------------------------------------------------------|
G|-------------------------------------------------------------------|
D|--0--0--0--0--0--0--0--0--0--0--0--0--0--0--0--0-------------------|
A|--0--0--0--0--0--0--0--0--0--0--0--0--0--0--0--0-------------------|
D|--0--0--0--0--0--0--0--0--0--0--0--0--0--0--0--0-------------------|

Guitar 1
e|-------------------------------------------------------------------|
B|-------------------------------------------------------------------|
G|-------------------------------------------------------------------|
D|-----------2-----------------------2-------------------------------|
A|-----2--4----4--0--2--4------2--4-----4--0--2--4-------------------|
D|--4-----------------------4----------------------------------------|
Guitar 2
e|-------------------------------------------------------------------|
B|-------------------------------------------------------------------|
G|-------------------------------------------------------------------|
D|--4--4--4--4--4--4--4--4--4--4--4--4--4--4--4--4-------------------|
A|--4--4--4--4--4--4--4--4--4--4--4--4--4--4--4--4-------------------|
D|--4--4--4--4--4--4--4--4--4--4--4--4--4--4--4--4-------------------|

Guitar 1
e|-------------------------------------------------------------------|
B|-------------------------------------------------------------------|
G|-------------------------------------------------------------------|
D|-----------2-----------------------2-------------------------------|
A|-----2--4----4--0--2--4------2--4-----4--0--2--4-------------------|
D|--0------------------------0---------------------------------------|
Guitar 2
e|-------------------------------------------------------------------|
B|-------------------------------------------------------------------|
G|-------------------------------------------------------------------|
D|--0--0--0--0--0--0--0--0--0--0--0--0--0--0--0--0-------------------|
A|--0--0--0--0--0--0--0--0--0--0--0--0--0--0--0--0-------------------|
D|--0--0--0--0--0--0--0--0--0--0--0--0--0--0--0--0-------------------|

the verse is the same thing, only guitar 2 does a different strumming with palm muting
Tap to rate this tab
# A B C D E F G H I J K L M N O P Q R S T U V W X Y Z