Guitaretab - guitar tabs
Song name
# A B C D E F G H I J K L M N O P Q R S T U V W X Y Z

Rufio - Out Of Control tab

Rufio  Out of Control

Guitar one
|---------------0-----------|-----2--0-----2--0--------|
|------2-----------2-----2--|-----------------------2--|
|---------2--1--------2-----|-----------2--------2-----|
|---4-----------------------|--0-----------------------|
|---------------------------|--------------------------|
|---------------------------|--------------------------|

|---------------0-----------|-----0-----0-----0--0-0-----|
|------2-----------2--------|-----3-----3-----3--3-3-----|
|---------2--1--------2-----|-----2-----2-----2--2-2-----|
|---4--------------------0--|--0--0-----0-----0--0-0-----|
|---------------------------|----------------------------|
|----------------------|---------------------------------|

guitar two
|-----------------------------------------------------------------------|
|-----------------------------------------------------------------------|
|------------------------------x--77-x-77---( 2 X)----------------------|
|-------------------44-x-7--7--x--77-x-77-------------------------------|
|--(slide down)15---44-x-7--7--x--55-x-55-------------------------------|
|-------------------22-x-5--5--x----------------------------------------|

fill
|-----------------------------------------------------------------------|
|-----------------------------------------------------------------------|
|----------2--1----------------2-1-----------------6--------------------|
|-------4-------4--2---------4------4--2-----0--7--------9--7--6--------|
|-----------------------------------------------------------------------|
|--2----------------2---------------------------------------------------|


|-----------------------------------------------------------------------|
|-----------------------------------------------------------------------|
|---------6-------------7--6--------------------------------------------|
|--0--7--------9--7--6--------------------------------------------------|
|-----------------------------------------------------------------------|
|-----------------------------------------------------------------------|

verse

|-----------------------------------------------------------------------|
|-----------------------------------------------------------------------|
|--------------------------------------------77-x-x-77--x-x-------------|
|--44-x-x-44-x-x-44-x-x-44-x-x-77-x-x-77-x-x-77-x-x-77--x-x-------------|palm muted
|--44-x-x-44-x-x-44-x-x-44-x-x-77-x-x-77-x-x-55-x-x-55--x-x-------2-x---|
|--22-x-x-22-x-x-22-x-x-22-x-x-55-x-x-55-x-x------------x-x-------------|

|-----------------------------------------------------------------------|
|-----------------------------------------------------------------------|
|--------------------------------------------77-x-x-77--x-x-------------|
|--44-x-x-44-x-x-44-x-x-44-x-x-77-x-x-77-x-x-77-x-x-77--x-x------------|open
|--44-x-x-44-x-x-44-x-x-44-x-x-77-x-x-77-x-x-55-x-x-55--x-x-------2-x---|
|--22-x-x-22-x-x-22-x-x-22-x-x-55-x-x-55-x-x------------x-x-------------|

|----------------------------------------------------------------------------|
|---------------------------------1st time palm muted let chord ring --------|
|-------------second time open-----------------------------------------------|
|------------------------------------------2--2------------------------------|
|------------------------------------------2--2------------------------------|
|-2--0--2----0-----5---0---5---0---0--0----0--0------------------------------|

both guitars til split then this is first while the other
|----------------------------------------------------------------------------|
|----------------------------------------------------------------------------|
|----------------------------------------------------------------------------|
|---------------------2---0---0----------------------------------------------|
|-------------2---4----------------4--4--2--2--0--02--2--0--0---------------|
|---0--2--4------------------------------------------------------44---------|

|-----------------------------------------------------------------------|
|-----------------------------------------------------------------------|
|-----------------------------------------------------------------------|
|--------4--4-x-4-4-x-4-4-------4444444-22222222---4444444-22222222-----|
|--------4--4-x-4-4-x-4-4-------4444444-22222222---4444444-22222222-----|
|---0----2--2-x-2-2-x-2-2------2222222200000000---2222222-00000000-----|

guitar plays this
|----------------------------------------------------------------------------|
|----------------------------------------------------------------------------|
|----------------------------------------------------------------------------|
|---------------------2---4---4----2--2--0--0--------------------------------|
|-------------2---4-----------------------------4-4--5--5-4--4--------------|
|---0--2--4------------------------------------------------------2-2---------|

|-----------------------------------------------------------------------|
|-----------------------------------------------------------------------|
|-----------------------------------------------------------------------|
|--------4--4-x-4-4-x-4-4--------4444444---2222222--444444--2222--------|
|--------4--4-x-4-4-x-4-4--------4444444---2222222--444444--2222--------|
|---0----2--2-x-2-2-x-2-2--------2222222---0000000--222222--0000--------|


fill
|-----------------------------------------------------------------------|
|-----------------------------------------------------------------------|
|----------2--1----------------2-1-----------------6--------------------|
|-------4-------4--2---------4------4--2-----0--7--------9--7--6--------|
|-----------------------------------------------------------------------|
|--2----------------2---------------------------------------------------|


|-----------------------------------------------------------------------|
|-----------------------------------------------------------------------|
|---------6-------------7--6--------------------------------------------|
|--0--7--------9--7--6--------------------------------------------------|
|-----------------------------------------------------------------------|
|-----------------------------------------------------------------------|

verse

|-----------------------------------------------------------------------|
|-----------------------------------------------------------------------|
|--------------------------------------------77-x-x-77--x-x-------------|
|--44-x-x-44-x-x-44-x-x-44-x-x-77-x-x-77-x-x-77-x-x-77--x-x-------------|palm muted
|--44-x-x-44-x-x-44-x-x-44-x-x-77-x-x-77-x-x-55-x-x-55--x-x-------2-x---|
|--22-x-x-22-x-x-22-x-x-22-x-x-55-x-x-55-x-x------------x-x-------------|
[ Tab from: http://www.guitaretab.com/r/rufio/137883.html ]
|-----------------------------------------------------------------------|
|-----------------------------------------------------------------------|
|--------------------------------------------77-x-x-77--x-x-------------|
|--44-x-x-44-x-x-44-x-x-44-x-x-77-x-x-77-x-x-77-x-x-77--x-x------------|open
|--44-x-x-44-x-x-44-x-x-44-x-x-77-x-x-77-x-x-55-x-x-55--x-x-------2-x---|
|--22-x-x-22-x-x-22-x-x-22-x-x-55-x-x-55-x-x------------x-x-------------|

|----------------------------------------------------------------------------|
|---------------------------------1st time palm muted------------------------|
|-------------second time open-----------------------------------------------|
|------------------------------------------2--2------fist time only----------|
|------------------------------------------2--2-----2-2--0-0-----------------|
|-2--0--2----0-----5---0---5---0---0--0----0--0--------------4--4--0---------|

both guitars til split then this is first while the other
|----------------------------------------------------------------------------|
|----------------------------------------------------------------------------|
|----------------------------------------------------------------------------|
|---------------------2---0---0----------------------------------------------|
|-------------2---4----------------4--4--2--2--0--02--2--0--0---------------|
|---0--2--4------------------------------------------------------44---------|

|-----------------------------------------------------------------------|
|-----------------------------------------------------------------------|
|-----------------------------------------------------------------------|
|--------4--4-x-4-4-x-4-4-------44444444-22222222-444444444-2222222-----|
|--------4--4-x-4-4-x-4-4-------44444444-22222222-444444444-2222222-----|
|---0----2--2-x-2-2-x-2-2-------22222222-00000000-222222222-0000000-----|

guitar plays this
|----------------------------------------------------------------------------|
|----------------------------------------------------------------------------|
|----------------------------------------------------------------------------|
|---------------------2---4---4----2--2--0--0--------------------------------|
|-------------2---4-----------------------------4-4--5--5-4--4--------------|
|---0--2--4------------------------------------------------------2-2---------|

|-----------------------------------------------------------------------|
|-----------------------------------------------------------------------|
|-----------------------------------------------------------------------|
|--------4--4-x-4-4-x-4-4--------4444444---2222222--444444--2222--------|
|--------4--4-x-4-4-x-4-4--------4444444---2222222--444444--2222--------|
|---0----2--2-x-2-2-x-2-2--------2222222---0000000--222222--0000--------|


Guitar one
|---------------0-----------|-----2--0-----2--0--------|
|------2-----------2-----2--|-----------------------2--|
|---------2--1--------2-----|-----------2--------2-----|
|---4-----------------------|--0-----------------------|
|---------------------------|--------------------------|
|---------------------------|--------------------------|

|---------------0-----------|-----0-----0-----0--0-0-----|
|------2-----------2--------|-----3-----3-----3--3-3-----|
|---------2--1--------2-----|-----2-----2-----2--2-2-----|
|---4--------------------0--|--0--0-----0-----0--0-0-----|
|---------------------------|----------------------------|
|----------------------|---------------------------------|


|-----------------------------------------------------------------------|
|-----------------------------------------------------------------------|
|---------------------------------77-x-x-77--x-x------------------------|
|--44-x-x-x-44-x-x-77-x-x-77-x-x-77-x-x-77--x-x------------------------|
|--44-x-x--x-44-x-x-77-x-x-77-x-x-55-x-x-55--x-x------------------------|
|--22-x-x--x-22-x-x-55-x-x-55-x-x------------x-x------------------------|


listen for the chords follow through
|---5--------2--------*----------------scale part twice before-------|
|---7--------2--------*------------------------the chords------------|
|---7--------3--------*----------------------------------------------|
|---7--------4--------*--4-4-2-2-0-0----------------------4-4---2-2--|
|---5--------4--------*--------------4-4-5-5-4-4-2-2------4-4---2-2--|
|---5--------2--------*--------------------------------0--2-2---0-0--|


both guitars til split then this is first while the other
|----------------------------------------------------------------------------|
|----------------------------------------------------------------------------|
|----------------------------------------------------------------------------|
|---------------------2---0---0----------------------------------------------|
|-------------2---4----------------4--4--2--2--0--02--2--0--0---------------|
|---0--2--4------------------------------------------------------44---------|

|-----------------------------------------------------------------------|
|-----------------------------------------------------------------------|
|-----------------------------------------------------------------------|
|--------4--4-x-4-4-x-4-4-------44444444-22222222-444444444-2222222-----|
|--------4--4-x-4-4-x-4-4-------44444444-22222222-444444444-2222222-----|
|---0----2--2-x-2-2-x-2-2-------22222222-00000000-222222222-0000000-----|

guitar plays this
|----------------------------------------------------------------------------|
|----------------------------------------------------------------------------|
|----------------------------------------------------------------------------|
|---------------------2---4---4----2--2--0--0--------------------------------|
|-------------2---4-----------------------------4-4--5--5-4--4--------------|
|---0--2--4------------------------------------------------------2-2---------|

|-----------------------------------------------------------------------|
|-----------------------------------------------------------------------|
|-----------------------------------------------------------------------|
|--------4--4-x-4-4-x-4-4--------4444444---2222222--444444--2222--------|
|--------4--4-x-4-4-x-4-4--------4444444---2222222--444444--2222--------|
|---0----2--2-x-2-2-x-2-2--------2222222---0000000--222222--0000--------|


fill
|-----------------------------------------------------------------------|
|-----------------------------------------------------------------------|
|----------2--1----------------2-1-----------------6--------------------|
|-------4-------4--2---------4------4--2-----0--7--------9--7--6--------|
|-----------------------------------------------------------------------|
|--2-------------------2------------------------------------------------|


|------------------------------------------*------both guitars strong --|
|------------------------------------------*----------------------------|and powerful
|---------6-------------7--6---------------*----------------------------|
|--0--7--------9--7--6---------------------*---4----------------------0-|
|------------------------------------------*---4---then slide down to 0-|
|------------------------------------------*--2-----------------------0-|


p.s. this is my first tab .. if there are any concerns.. comments or ideas
for help let me know at mrwilmingtonsson@aol.com
Related for Out Of Control tab