Song name
# A B C D E F G H I J K L M N O P Q R S T U V W X Y Z

Rufio - Drowning tab

Help us improve GuitareTab! Take a short survey!
------------------------------------------------------------
		      Drowning - Rufio
------------------------------------------------------------
Tabbed by: Richie Crowe
Email: unrealsports2000@yahoo.com

Tuning: Standard

| pm palm mute
| \  slide down
| h  hammer-on
| p  pull-off


Strumming pattern:

#1-3: ↓↑↓↑ ↓↑↓ ↓↑
#4 is that same as #1-3 except it ends like this ↓↑↓↑ ↓↑↓ ↓↓↓ 
#5 Rock out!!!
#6: ↓↑↓↑ ↓↑↓↑ ↓↑ and ends like this ↓↑↓↑ ↓↑↓↑  




#1.
e|----------------------------------------------------------|
B|----------------------------------------------------------|
G|----------------------------------------9999--------------|
D|7777--------7777--------10101010--------7777--------------|
A|5555--------5555--------8 8 8 8 --------------------------|
E|----------------------------------------------------------|
↑
pm
-----------------------------------------------------------

#2.
e|----------------------------------------------------------|
B|----------------------------------------------------------|
G|---------------------------------------------9999-999-99--|
D|7777-777-77-7777-777-77-10101010-101010-1010-7777-777-77--|
A|5555-555-55—5555-555-55-8 8 8 8 -8 8 8 -8 8---------------|
E|----------------------------------------------------------|
↑
pm
-----------------------------------------------------------

#3.
e|----------------------------------------------------------|
B|----------------------------------------------------------|
G|---------------------------------------------9999-999-99--|
D|7777-777-77-7777-777-77-10101010-101010-1010-7777-777-77--|
A|5555-555-55—5555-555-55-8 8 8 8 -8 8 8 -8 8---------------|
E|----------------------------------------------------------|
↑
pm     (-----------------)        (-----------)     (------)


#4.
e|----------------------------------------------------------|
B|----------------------------------------------------------|
G|---------------------------------------------9999-999999--|
D|7777-777-77-7777-777-77-10101010-101010-1010-7777-777777--|
A|5555-555-55—5555-555-55-8 8 8 8 -8 8 8 -8 8---------------|
E|----------------------------------------------------------|


#5.
e|----------------------------------------------------------|
B|----------------------------------------------------------|
G|----------------------------------------------------------|
D|---------7-8h7\5------------------------------------------|
A|-5-0-8-0---------0--5-0-8-0—7h8p7-5-7---------------------|
E|----------------------------------------------------------|
↑
6x total with some high notes thrown in at the end maybe (A or E) harmonics?


#6
e|---------------------------------------------------------------------------|
B|---------------------------------------------------------------------------|
G|-------------------------------------------------9999-9999-99--------------|
D|7777-7777-77-7777-7777-77-10101010-10101010-1010-7777-7777-77-7777-7777----|
A|5555-5555-55—5555-5555-55-8 8 8 8 -8 8 8 8 -8 8 --------------5555-5555----|
E|---------------------------------------------------------------------------|


This is my first tab. It’s probably not perfect but it’s a good starting point.
===============================================================================
Related for Drowning tab