Song name
# A B C D E F G H I J K L M N O P Q R S T U V W X Y Z

Rufio - My Escape tab

-----------------------------------------------------
	      My Escape (Intro) - Rufio
-----------------------------------------------------
Tabbed by: Richie Crowe
Email: unrealsports2000@yahoo.com

Tuning: Standard 


| h: hammer-down


e|--------------------------------------------------|
B|--------------------------------------------------|
G|--------------------0-----------------------------|
D|-4-4-4h7-4-0----0--0-2----------------------------|
A|-5----------0h1---1-------------------------------|
E|--------------------------------------------------|

or

e|--------------------------------------------------|
B|--------------------------------------------------|
G|--------------------------------------------------|
D|-4-4-4h7-4-0------5-------------------------------|
A|-5-------------5-5-7------------------------------|
E|------------0h6-6---------------------------------|

e|-1----0----1--------------------------------------|
B|-1----1----3--------------------------------------|
G|-2----2----2---3----------------------------------|
D|-3----2----0---3----------------------------------|
A|-3----0--------1----------------------------------|
E|-1----0-------------------------------------------|

=====================================================

Tap to rate this tab
 
# A B C D E F G H I J K L M N O P Q R S T U V W X Y Z