Rufio - Deep End tab

E|-13-14-13------------------------13-14-13-----------------------||
B|----------16-14----16---16-14-16----------14--------------------||
G|----------------15----------------------------------------------||
D|----------------------------------------------------------------||
A|----------------------------------------------------------------||
D|----------------------------------------------------------------||

E|-13-14-13-------------------------------------------------------||
B|----------16-14------------------14-16-14-----------------------||
G|----------------15-16---16-15-16----------16--------------------||
D|----------------------------------------------------------------||
A|----------------------------------------------------------------||
D|----------------------------------------------------------------||
Tap to rate this tab
 
# A B C D E F G H I J K L M N O P Q R S T U V W X Y Z