Song name
# A B C D E F G H I J K L M N O P Q R S T U V W X Y Z

Rufio - Science Fiction tab

-------------------------------------------------------------------------------
			     Science Fiction - Rufio
-------------------------------------------------------------------------------
Tabbed by: Zamboni

Tuning: Standard

---------------
pm = Palm Mute
---------------

Note: This is the 100% correct way to play the intro. The 14th fret is a bit of a
stretch from 9th position, but just use your pinky.

(Dots under note indicate pm)

Guitar One Intro (x4):
e|---------------------------------------|----------------------------------|
B|---------------------------------------|----------------------------------|
G|---------------------------------------|----------------------------------|
D|11---------------14----------11--------|7---9---11-----6---7-----9---7----|
A|---9-12-9-11-9-9----9-12-9-9----9-12-9-|--0---0----0-0---7---7-7---7---7--|
E|---------------------------------------|----------------------------------|
    pm.....    ..     .    ..     ......    .   .    ...   .   ...   .   .
Guitar Two Intro (x4)
e|---------------------------------------|----------------------------------|
B|---------------------------------------|----------------------------------|
G|---------------------------------------|----------------------------------|
D|-4-------------------------------------|--7--------------2----------------|
A|-4-(x16)-------------------------------|--7-(x8)---------2-(x8)-----------|
E|-2-------------------------------------|--5--------------0----------------|
  pm.........................................................................
Tap to rate this tab
# A B C D E F G H I J K L M N O P Q R S T U V W X Y Z