Song name
# A B C D E F G H I J K L M N O P Q R S T U V W X Y Z

Rufio - Above Me tab

                                   Above Me  
Solo Tabs                                 


                                                                           Rufio
Lead    bhishmyadav@gmail.com
well the solo is a real bass solo i have tabbed both

Electric Guitar Part               

Outro                           
      
----------------------------|
----------------------------|
--10-10--------10-10--------|
---x--x---------x--x--------|
---8--8---------8--8--------|
----------------------------|


        
--------------------------------------------|----------------------------|
--------------------------------------------|----------------------------|
--10--10--10-10-10-9--------9-9h-10p-9------|--10-10--------10-10--------|
---x---x---x--x--x-x--10-10------------10S--|---x--x---------x--x--------|
---8---8---8--8--8-7------------------------|---8--8---------8--8--------|
--------------------------------------------|----------------------------|


   
---------------------------------------------|
---------------------------------------------|
--10--10--10-10-10-9--------9-9h-10p-9-------|
---x---x---x--x--x-x--10-10------------10-10-|
---8---8---8--8--8-7-------------------------|
---------------------------------------------|


Bass Solo {electric Guitar Part}  
--------------------------------------------------|
--------------------------------------------------|
--10-10-10-10-10-10-10-10-10-10-10-10-10-10-10-10-|
---x--x--x--x--x--x--x--x--x--x--x--x--x--x--x--x-|
---8--8--8--8--8--8--8--8--8--8--8--8--8--8--8--8-|
--------------------------------------------------|


   
--------------------------------------------|
--------------------------------------------|
--10--10--10-10-10-9--------9-9h-10p-9------|
---x---x---x--x--x-x--10-10------------10S--|
---8---8---8--8--8-7------------------------|
--------------------------------------------|


  
--------------------------------------------------|
--------------------------------------------------|
--10-10-10-10-10-10-10-10-10-10-10-10-10-10-10-10-|
---x--x--x--x--x--x--x--x--x--x--x--x--x--x--x--x-|
---8--8--8--8--8--8--8--8--8--8--8--8--8--8--8--8-|
--------------------------------------------------|


 
--------------------------------------------|-------------------||
--------------------------------------------|-------------------||
--10--10--10-10-10-9--------9-9h-10p-9------|--10--------L-10---||
---x---x---x--x--x-x--10-10------------10S--|---x-----------x---||
---8---8---8--8--8-7------------------------|---8--------L--8---||
--------------------------------------------|-------------------||




Bass Notes{played On bass}

 Outro 
------------------------|------------------------------|
------------------------|------------------------------|
------------------------|--5--5--5-5-5-3-3--3--3-3-3-3-|
--5-5--------6-6--------|------------------------------|


  
------------------------|------------------------------|
------------------------|------------------------------|
------------------------|--5--5--5-5-5-3-3--3--3-3-3-3-|
--5-5--------6-6--------|------------------------------|


  Solo
------------------------------|
------------------------------|
------------------------------|
--5--5--5-5-5-6--6-6--6-6-6-6-|


   
--------------------------------------------------|
--------------------10-12-10-------12-------------|
--------------10-12----------13-12----13-12-------|
--10-10-12-13-------------------------------12-10-|


   
------------------------------|----------------------------------------------|
------------------------------|--12-12-10-10-8-8-------10-10-8-8-------------|
------------------------------|------------------12-12-----------12-12-10-10-|
--5--5--5-5-5-6--6-6--6-6-6-6-|----------------------------------------------|


  
------------------||
------------------||
--8--------L-8S---||
------------------||






Tablature Legend
----------------
L - tied note
x - dead note
g - grace note
(n) - ghost note
> - accentuded note
NH - natural harmonic
AH - artificial harmonic
TH - tapped harmonic
SH - semi harmonic
PH - pitch harmonic
h - hammer on
p - pull off
b - bend
br - bendRelease
pb - preBend
pbr - preBendRelease
brb - bendReleaseBend
\n/ - tremolo bar dip
\n - tremolo bar dive
-/n - tremolo bar Release up
/n\ - tremolo bar inverted dip
/n - tremolo bar return
-\n - tremolo bar Release down
S - shift slide
s - legato slide
/ -  slide into from below or out of upwards
\ -  slide into from above or out of downwards
~ - vibrato
W - wide vibrato
tr - trill
TP - tremolo picking
T - tapping
S - slap
P - pop
< - fade in
^ - brush up
v - brush down
Tap to rate this tab
 
# A B C D E F G H I J K L M N O P Q R S T U V W X Y Z