Song name
# A B C D E F G H I J K L M N O P Q R S T U V W X Y Z

Rufio - White Lights tab

Highlighted       Show chord diagrams
Rufio
White Lights
1985
2003 Nitro Records
Submitted by: paramore_fans@yahoo.com

Key: B

Tuning: Standard EADGBe

Chords used:
G#m -   466444
E -     022100
F# -    244322
B -     x24442
F#/Bb - x143xx


Intro: G#m--E-F# x4

Guitar 2:
      G#m            E          F#
e|-------------|-----2---0-|-----------|
B|---0-4-0-2-0-|---0---0---|-4-2-0---0-|
G|-3-----------|-3---------|-------3---|
D|-------------|-----------|-----------|
A|-------------|-----------|-----------|
E|-------------|-----------|-----------|


Verse 1:
G#m               E
Honestly with the things i've
        B                  F#
seen it seems as though we fly
 G#m        E
stories go stories leave
     B             F#
they imprint on my mind


Refrain:
   E
be honest
      F#
we'll be afraid
E
falling
 F#
over again


Guitar 2:
                E                                F#
e|--------------------------------|--------------------------------|
B|--------------------------------|--------------------------------|
G|------4-4-4---------------------|------4-4-4---------------------|
D|-2-2--------4-4-4-2-2-2-1-1-----|-4-4--------4-4-4-2-2-2-1-1-----|
A|-2-2------------------------2-2-|-4-4------------------------2-2-|
E|-0-0----------------------------|-2-2----------------------------|

                E                                F#
e|--------------------------------|--------------------------------|
B|--------------------------------|--------------------------------|
G|------4-4-4---------------------|------4-4-4---------palm-mute---|
D|-2-2--------4-4-4-2-2-2-1-1-----|-4-4--------4-4-4-4-4-4-4-4-4-4-|
A|-2-2------------------------2-2-|-4-4--------------4-4-4-4-4-4-4-|
E|-0-0----------------------------|-2-2--------------2-2-2-2-2-2-2-|


Chorus:
G#m     E  F#      B
time is wasted and gone
G#m     E       F# E
life is passing on again
    G#m          E  F#       B
the white lights leading you on
G#m  F#       E
  is this the end?


Guitar 2: in "the white lights leading you on..."
    G#m       E       F#         B
e|-7-6---|--------|--------|----------|
B|-----9-|-7--7-9-|-7--7-9-|-7--------|
G|-------|--------|--------|----8-6-8-|
D|-------|--------|--------|----------|
A|-------|--------|--------|----------|
E|-------|--------|--------|----------|

    G#m       F#           E
e|-7-6---|--------|------------------|
B|-----9-|-7--7-9-|------------------|
G|-------|--------|------palm-mute---|
D|-------|--------|-2--2-2-2-2-2-2-2-|
A|-------|--------|-2--2-2-2-2-2-2-2-|
E|-------|--------|-0--0-0-0-0-0-0-0-|


(Repeat Intro)


Verse 2:
   G#m              E
so this is what you want to be
B                  F#
held too close for eyes to see
     G#m    F#       E
your fantasy turn to misery


(Repeat Refrain and Chorus)


Bridge:
G#m     E          F#      B
i can't see what's on your mind
G#m   E             F#     E
all i know's you're bored again
G#m E        F#       B
irresistance you will find
G#m     F#      E   F#-F#
  while you're alive


Interlude: E--G#m-F#/Bb x2, E--F#


(Repeat Chorus twice)
(Repeat Intro x2 only)
Tap to rate this tab
# A B C D E F G H I J K L M N O P Q R S T U V W X Y Z