Song name
# A B C D E F G H I J K L M N O P Q R S T U V W X Y Z

Rufio - Wrath tab

Transcribed By Claudio Lluberes
smashcla@hotmail.com
DROP D TUNING

PM... - palm mute
v - vibrato
* - pinch harmonic
t - finger tapping
^ - bend

GUITAR 1'S PARTS:
-----------------
Intro:
e|---------------------------------------------------------------------------|
B|------8vvvvvvvvvvvvvvvvvvv--(Put your finger on the fret-------------------|
G|-----------------------------and move it so it keeps ringing)--------------|
D|---------------------------------------------------------------------------|
A|---------------------------------------------------------------------------|
D|---------------------------------------------------------------------------|

Intro Cont'd/Verse: (listen to CD for # of times)
e|---------------------------------------------------------------------------|
B|---------------------------------------------------------------------------|
G|---------------------------------------------------------------------------|
D|----5-5--------------------------------------------------------------------|
A|2-2-----6-6-5-5-8-8-5-5-2-2-5-5--------------------------------------------|
D|---------------------------------------------------------------------------|
 ...............................

Chorus: (4x)
e|-----------------------------|----(play this on 3rd time)--------------------|
B|-----------------------------|----------------------------*------------------|
G|-----------------------------|----------------------------3------------------|
D|--------1----------------*---|-----------1-----------------------------------|
A|--------1----------------1---|-----------1-----------------------------------|
D|-1-1--1----1-1--1-3--1-1-----|----1-1--1----1-1--1-3--1-1--------------------|
  ......    ......    ...          ......    ......    ...

Slow Down
e|---------------------------------------------------------------------------|
B|---------------------------------------------------------------------------|
G|---------------------------------------------------------------------------|
D|---------------------------------------------------------------------------|
A|-1-1x-------1-1x---1-1x---1-1x---------------------------------------------|
D|-1-1x-------1-1x---1-1x---1-1x---------------------------------------------|
  ....       ....   ....   ....

Outro: repeat many times (fade out)
e|---------------------------------------------------------------------------|
B|---------------------------------------------------------------------------|
G|-4~--------12~--------8~---------------------------------------------------|
D|---------------------------------------------------------------------------|
A|-2~--------10~--------6~---------------------------------------------------|
D|---------------------------------------------------------------------------|


GUITAR 2'S PARTS:
-----------------
Intro:  (4x)
e|---------------------------------------------------------------------------|
B|---------------------------------------------------------------------------|
G|1--1--1--1--1--1--1--1--1--1--1--1-----------------------------------------|
D|0--0--0--0--0--0--0--0--0--0--0--0-1-1-1-1-1-1-----------------------------|
A|2--2--2--2--2--2--2--2--2--2--2--2-3-3-3-3-3-3-----------------------------|
D|0--0--0--0--0--0--0--0--0--0--0--0-1-1-1-1-1-1-----------------------------|
 ..............................................

Intro Cont'd/Verse:  (Wait for Guitar 1 to go once)
e|---------------------------------------------------------------------------|
B|---------------------------------------------------------------------------|
G|---------------------------------------------------------------------------|
D|---------------------------------------------------------------------------|
A|----3-3-2-2----------------------------------------------------------------|
D|2-2---------5-5-7-7-5-5-2-2-5-5--------------------------------------------|
 ...............................

Chorus: (listen real closely to
e|---------------------------------------------------------------------------|
B|---------------------------------------------------------------------------|
G|----4p0--------4p0---------------------------------------------------------|
D|---------------------------------------------------------------------------|
A|2-2-----2--2-2-----2-------------------------------------------------------|
D|---------------------------------------------------------------------------|
 ...     .  ...     .

Slow Down
e|---------------------------------------------------------------------------|
B|---------------------------------------------------------------------------|
G|---------------------------------------------------------------------------|
D|---------------------------------------------------------------------------|
A|-1-1x-------1-1x---1-1x---1-1x---------------------------------------------|
D|-1-1x-------1-1x---1-1x---1-1x---------------------------------------------|
  ....       ....   ....   ....

Outro: repeat many times (fade out)
e|---------------------------------------------------------------------------|
B|---------------------------------------------------------------------------|
G|---------------------------------------------------------------------------|
D|---------------------------------------------------------------------------|
A|-2~--------3~--------2~----------------------------------------------------|
D|-2~------------------------------------------------------------------------|


GUITAR 3'S PARTS
----------------
...too *** hard (just make something up to impress your friends)

THE VERY LAST SOLO (the best we could do)
too hard to type out rhythym
e|---------------------------------------------------------------------------|
B|--17t15t12--16t15t12--15t14t11-14t??t??-13t12t9--------------20^------20^--|
G|----------------------------------------------------------------------18^--|
D|---------------------------------------------------------------------------|
A|---------------------------------------------------------------------------|
D|---------------------------------------------------------------------------|
                                        just keep goin off on that last bend

e|---------------------------------------------------------------------------|
B|---------3-----6-----9-------12--15^--/15^--/12^--/12^--/11^--/15^---------|
G|--7----4-----4-----7------10-----------------------------------------------|
D|6----3-----6-----9-----12--------------------------------------------------|
A|---------------------------------------------------------------------------|
D|---------------------------------------------------------------------------|

-Stig-
Tap to rate this tab
 
# A B C D E F G H I J K L M N O P Q R S T U V W X Y Z