Song name
# A B C D E F G H I J K L M N O P Q R S T U V W X Y Z

Rufio - Over It Acoustic tab

Help us improve GuitareTab! Take a short survey!
Rufio - Over It (Acoustic)
Track Time (1:54)

Tabbed By: Manilette Ann "Maan" P. Fernandez

Comments?
> E-mail: maan.fernandez@yahoo.com

I know this isn't 100% correct but it's really close.
Listen to the song for the timing, plucking and strumming.
There are 2 guitars playing in this song but I'm only going to do the lead guitar.


Tuning: Standard


Intro: (Repeat x2)
e|--------------0-------------0-------------0--|
B|--------0-------------0-------------0--------|
G|------4---4---------4---4---------4---4------|
D|----2-------2-----2-------2-----2-------2----|
A|--4-------------0-------------4--------------|
E|---------------------------------------------|

e|------------------0--|
B|------------------0--|
G|------4-------4---4--|
D|----2-------2-----2--|
A|--0-------2-------0--|
E|---------------------|


Verse:
e|--------------0-------------0--|
B|--------0-------------0--------|
G|------4---4---------4---4------| (Repeat x3)
D|----2-------2-----2-------2----|
A|--4-------------0--------------|
E|-------------------------------|

I can't believe that you're wasting your time,
Thought you could find your way back.
You heard my story but heard it all wrong,

e|--0-0-0--|
B|--0-0-0--|
G|--4-4-4--|
D|--2-2-2--|
A|--2-4-0--|
E|--0-0-0--|

Not me.


Pre-Chorus:
e|--0--0--0--0--0--0--0--0--|
B|--0--0--0--0--0--0--0--0--|
G|--4--4--4--4--4--4--4--4--|
D|--2--2--2--2--2--2--2--2--|
A|--0--2--4--2--0--2--4--0--|
E|--0--0--0--0--0--0--0--0--|

Well it's just so little and I can see through you, we know it will end.
This distance is secret, it's seeping out my skin, yeah.


Chorus: (Repeat x2)
e|--0--0--0--0--|
B|--0--0--0--0--|
G|--1--4--6--2--|
D|--2--4--6--2--|
A|--2--2--4--0--|
E|--0--0--0--0--|

I was over it before,
But you brought me back to where I began.

e|--0--0--0--0--|
B|--0--0--0--0--|
G|--1--4--6--2--|
D|--2--4--6--2--|
A|--2--2--4--0--|
E|--0--0--0--0--|

And I'm starting out again,
And I'll remain here until the end.


Bridge:
e|--------------0-------0-------0--|
B|--------0------------------------|
G|------4---4---------4-------4----| (Repeat x3)
D|----2-------2-----2-------2------|
A|--4-------------0-------2--------|
E|---------------------------------|

And I can't believe in anything,
When our differences are the same.
You're not listening anyway,

e|--0-0-0--|
B|--0-0-0--|
G|--4-4-4--|
D|--2-2-2--|
A|--2-4-0--|
E|--0-0-0--|

It's over..

(Repeat Chorus)
I was over it before,
But you brought me back to where I began.
And I'm starting out again,
And I'll remain here..
Related for Over It Acoustic tab