Song name
# A B C D E F G H I J K L M N O P Q R S T U V W X Y Z

Rufio - Above Me Acoustic tab

RUFIO - ABOVE ME ACOUSTIC

low part repeat 2x)
(1)------------------------------------- ---------------------|
(2)------------------------------------- ---------------------|
(3)--10--9--10-10--9--10--10---12--10--- 9---10---9-----------|
(4)---7--7---7--8--8---8--12---12--12--- 10--10---10----------|
(5)------------------------------------- ---------------------|
(6)------------------------------------- ---------------------|

(high part repeat 2x)
(1)------------------------------------- ---------------------|
(2)--10----8---10---11--10---8--10--8--1 0--5--6--5-----------|
(3)--10---10---10---10--10--10--7---7--- 7--5--5--5-----------|
(4)------------------------------------- ---------------------|
(5)------------------------------------- ---------------------|
(6)------------------------------------- ---------------------|


just look on the other tabs for the rest because this is the only thing that is diffrent
Tap to rate this tab
 
# A B C D E F G H I J K L M N O P Q R S T U V W X Y Z