Song name
# A B C D E F G H I J K L M N O P Q R S T U V W X Y Z

Rufus Wainwright - Hallelujah tab

Tabbed by A7xman55
I don't know if these are completely right guys. You can take it by ear and mess 
with these tabs, but this is what I got. I just did sweep picking on the chords 
for the song (C, Am, F, G, E7). 
Tuning: Standard(E)EADGBe

Intro:
e|--------------------------|
B|---1------1------1------1-|
G|--0-0----2-2----0-0----2-2|
D|-2------2------2------2---|
A|3----2-0----2-3----2-0----|
E|--------------------------|

Verse 1:
e|--------------------------------------------------------------------|
B|---1------1------1------1--------------------1-------------1------1-|
G|--0-0----2-2----0-0----2-2-----2------4-----0-0-----4-----0-0----2-2|
D|-2------2------2------2-------3-3----5-5---2-------5-5---2------2---|
A|3----2-0----2-3----2-0-------3------5---2-3-------5---2-3----2-0----|
E|--------------------------0-1----1-3-----------1-3------------------|

e|------------------------------------------------------|
B|---1--------------------1---------------------------1-|
G|--0-0-----2------4-----2-2-----2------4------1-----2-2|
D|-2-------3-3----5-5---2-------3-3----5-5----0-0---2---|
A|3-------3------5---5-0-------3------5------2-----0----|
E|-----0-1----1-3-----------0-1----1-3----1-0----0------|

Chorus 1:
e|------------------------------------------------------------------|
B|------------1-------------1-------------1------1------1------1----|
G|-----4-----2-2-----2-----0-0-----4-----0-0----0-0----0-0----0-0---|
D|----3-3---2-------3-3---2-------5-5---2---2--2---2--2---2--2---2--|
A|---3-----0-------3---2-3-------5---2-3------3------3------3------3|
E|0-1----0------0-1-----------1-3-----------------------------------|


Verse 3:
e|--------------------------------------------------------------------|
B|---1------1------1------1--------------------1-------------1------1-|
G|--0-0----2-2----0-0----2-2-----2------4-----0-0-----4-----0-0----2-2|
D|-2------2------2------2-------3-3----5-5---2-------5-5---2------2---|
A|3----2-0----2-3----2-0-------3------5---2-3-------5---2-3----2-0----|
E|--------------------------0-1----1-3-----------1-3------------------|

e|------------------------------------------------------|
B|---1--------------------1---------------------------1-|
G|--0-0-----2------4-----2-2-----2------4------1-----2-2|
D|-2-------3-3----5-5---2-------3-3----5-5----0-0---2---|
A|3-------3------5---5-0-------3------5------2-----0----|
E|-----0-1----1-3-----------0-1----1-3----1-0----0------|

Chorus 2:
e|------------------------------------------------------------------|
B|------------1-------------1-------------1------1------1------1----|
G|-----4-----2-2-----2-----0-0-----4-----0-0----0-0----0-0----0-0---|
D|----3-3---2-------3-3---2-------5-5---2---2--2---2--2---2--2---2--|
A|---3-----0-------3---2-3-------5---2-3------3------3------3------3|
E|0-1----0------0-1-----------1-3-----------------------------------|


Verse 3:
e|--------------------------------------------------------------------|
B|---1------1------1------1--------------------1-------------1------1-|
G|--0-0----2-2----0-0----2-2-----2------4-----0-0-----4-----0-0----2-2|
D|-2------2------2------2-------3-3----5-5---2-------5-5---2------2---|
A|3----2-0----2-3----2-0-------3------5---2-3-------5---2-3----2-0----|
E|--------------------------0-1----1-3-----------1-3------------------|

e|------------------------------------------------------|
B|---1--------------------1---------------------------1-|
G|--0-0-----2------4-----2-2-----2------4------1-----2-2|
D|-2-------3-3----5-5---2-------3-3----5-5----0-0---2---|
A|3-------3------5---5-0-------3------5------2-----0----|
E|-----0-1----1-3-----------0-1----1-3----1-0----0------|

Chorus 3:
e|------------------------------------------------------------------|
B|------------1-------------1-------------1------1------1------1----|
G|-----4-----2-2-----2-----0-0-----4-----0-0----0-0----0-0----0-0---|
D|----3-3---2-------3-3---2-------5-5---2---2--2---2--2---2--2---2--|
A|---3-----0-------3---2-3-------5---2-3------3------3------3------3|
E|0-1----0------0-1-----------1-3-----------------------------------|


Verse 4:
e|--------------------------------------------------------------------|
B|---1------1------1------1--------------------1-------------1------1-|
G|--0-0----2-2----0-0----2-2-----2------4-----0-0-----4-----0-0----2-2|
D|-2------2------2------2-------3-3----5-5---2-------5-5---2------2---|
A|3----2-0----2-3----2-0-------3------5---2-3-------5---2-3----2-0----|
E|--------------------------0-1----1-3-----------1-3------------------|

e|------------------------------------------------------|
B|---1--------------------1---------------------------1-|
G|--0-0-----2------4-----2-2-----2------4------1-----2-2|
D|-2-------3-3----5-5---2-------3-3----5-5----0-0---2---|
A|3-------3------5---5-0-------3------5------2-----0----|
E|-----0-1----1-3-----------0-1----1-3----1-0----0------|

Chorus 4:
e|------------------------------------------------------------------|
B|------------1-------------1-------------1------1------1------1----|
G|-----4-----2-2-----2-----0-0-----4-----0-0----0-0----0-0----0-0---|
D|----3-3---2-------3-3---2-------5-5---2---2--2---2--2---2--2---2--|
A|---3-----0-------3---2-3-------5---2-3------3------3------3------3|
E|0-1----0------0-1-----------1-3-----------------------------------|


Verse 5:
e|--------------------------------------------------------------------|
B|---1------1------1------1--------------------1-------------1------1-|
G|--0-0----2-2----0-0----2-2-----2------4-----0-0-----4-----0-0----2-2|
D|-2------2------2------2-------3-3----5-5---2-------5-5---2------2---|
A|3----2-0----2-3----2-0-------3------5---2-3-------5---2-3----2-0----|
E|--------------------------0-1----1-3-----------1-3------------------|

e|------------------------------------------------------|
B|---1--------------------1---------------------------1-|
G|--0-0-----2------4-----2-2-----2------4------1-----2-2|
D|-2-------3-3----5-5---2-------3-3----5-5----0-0---2---|
A|3-------3------5---5-0-------3------5------2-----0----|
E|-----0-1----1-3-----------0-1----1-3----1-0----0------|

Chorus 5:
e|----------------------------------------------------------------------|
B|------------1-------------1--------------------1-------------1--------|
G|-----4-----2-2-----2-----0-0-----4------4-----2-2-----2-----0-0-----4-|
D|----3-3---2-------3-3---2-------5-5----3-3---2-------3-2---2-------5-5|
A|---3-----0-------3---2-3-------5------3-----0-------3---2-3-------5---|
E|0-1----0------0-1-----------1-3----3-1----0------0-1-----------1-3----|

Outro:
e|----0|
B|---1-|
G|--0--|
D|-2---|
A|3----|
E|-----|
 Slowly
Tap to rate this tab
# A B C D E F G H I J K L M N O P Q R S T U V W X Y Z