Song name
# A B C D E F G H I J K L M N O P Q R S T U V W X Y Z

Rufus Wainwright - Rules And Regulations chords

Highlighted       Show chord diagrams
    ________________________
   / Rufus Wainwright      /
  / Rules and Regulations /
 / Release the Stars     /
/_______________________/


CHORDS:
   D  [ch]A7sus2[/ch] [ch]Abdim7[/ch]   F#  Bm  E   Bb    G   F    D/A  Dsus  A7sus4  A7  Asus4
:--2-----0-----1---:--2---2---0---1--:--3---1--:--2----0------0-----0-----0---:
:--3-----0-----0---:--2---3---0---3--:--3---1--:--3----3------3-----2-----3---:
:--2-----0-----1---:--3---4---1---3--:--0---2--:--2----2------0-----0-----2---:
:--0-----2-----0---:--4---4---2---3--:--0---3--:--0----0------2-----2-----2---:
:--------0---------:--4---2---2---1--:--2---3--:--0-----------0-----0-----0---:
:------------------:--2-------0------:--3---1--:------------------------------:




Intro:        | D | [ch]A7sus2[/ch] | D | [ch]A7sus2[/ch] | (contrabass only)


Pre-Verse:    | D | [ch]A7sus2[/ch] | D | [ch]A7sus2[/ch] |
              | D | [ch]A7sus2[/ch] | D | [ch]A7sus2[/ch] |

       an electric guitar with a keyboard-like effect plays this:
      |--------------|-12-----------|--------------|--------------|
      |10~~--------12|---------12-10|~~------------|--------------|
      |--------------|--------------|--------------|--------------|
      |--------------|--------------|--------------|--------------|
      |--------------|--------------|--------------|--------------|
      |--------------|--------------|--------------|--------------|

      |--------------|-9~~----------|--------------|--------------|
      |7~~----------8|-----------8-8|-7~~----------|--------------|
      |--------------|--------------|--------------|--------------|
      |--------------|--------------|--------------|--------------|
      |--------------|--------------|--------------|--------------|
      |--------------|--------------|--------------|--------------|



Verse:        | D | [ch]A7sus2[/ch] | D | [ch]A7sus2[/ch] |
              | D | [ch]Abdim7[/ch] | D | [ch]A7sus2[/ch] |

Verse


Pre-Chorus:   | F# | - | Bm | E |

Chorus:       | D | - | - | - |
              | D | - | G | - |
              | G | F | F |


 Intro:      | D | [ch]A7sus2[/ch] |

Verse

Verse

Pre-Chorus

Chorus


Verse:        flute solo

Pre-Chorus:   | F# | - | Bm | E |
              | F# | - | Bm | Bb |

Climax:       | D/A | Dsus | A7sus4 | A7 |
              | D/A | Dsus | A7sus4 | A7 |
              | Asus4 | - |


Flute ending: | D | [ch]A7sus2[/ch] | D | [ch]A7sus2[/ch] |
              | D | [ch]Abdim7[/ch] | D ...



LYRICS:
I will never be as cute as you
according to the board of human relations
I will never fly as high as you
according to the board of public citations

These are just the rules and regulations
of the birds, and the bees
the earth, and the trees
Not to mention the gods, not to mention the gods

All my little life I've wanted to roam
Even if it was just inside my own home
Then one little day I chanced to look back
Saw you sittin' there, being a sad culprit

These are just the rules and regulations
of the birds, and the bees
the earth, and the trees
Not to mention the gods, not to mention the gods

These are just the rules and regulations
Yeah, these are just the rules and regulations
And I like every one, yes I like every one
Must follow them


+--------------------------------------------------------------------------+
Jon Sebastian Frederiksen - 14th /December /13
Just mail me at Maitinin@gmail.com with questions, comments and corrections!
Tap to rate this tab
 
# A B C D E F G H I J K L M N O P Q R S T U V W X Y Z