Song name
# A B C D E F G H I J K L M N O P Q R S T U V W X Y Z

Rugsted And Kreutzfeldt - Jeg Ved Det Godt chords

Highlighted       Show chord diagrams
   _________________________
  / Rugsted & Kreutzfeldt  /
 / Jeg Ved Det Godt       /
/________________________/

Her er akkorderne til denne udødelige evergreen.
Nederst har jeg noteret nogle akkorder og til sidst teksten.


 1. Vers:
 [A dur, ###]

| A | – | – | – | E | –  D/E |

| A | – | – | – | E | – |


| Dmaj7 | – | C#m7 | –  (Cm7)|

| Bm7 | C#/E | A | A Bm7 C#m7 Bm7 Dmaj7 |

| Dmaj7 | – | C#m7/G# | C#m7 |

| F#m7 | – | Fmaj7 | D/E |



 2. Vers:
Magen til 1. Vers,
men i sidste takt, op til omkvædet, er det i stedet | F/G |.
Her modulerer sangen til C dur.



 Omkvæd:
 [C dur]
||: Cmaj7 | Em7 | Dm7 | F/G :|| 3x



 Guitar mellemspil 1:
  Bb        F/A       C/E             F        C           Bb/C
|-------13--13--15--|------------------------|-----------|-----------|
|-13b15-------------|-15pb17r15-13-------13--|-13~-------|-----------|
|-------------------|---------------/14------|-----------|-----------|
|-------------------|------------------------|-----------|-----------|
|-------------------|------------------------|-----------|-----------|
|-------------------|------------------------|-----------|-----------|

 

 3. Vers:
 [A dur, ###]
Magen til 2. Vers



 Omkvæd:
 [C dur]
Magen til før.



 Guitar mellemspil 2:
  Bb        F/A       C/E          tromme-break
|-------13--13--15--|--------------------------|
|-13b15-------------|-15pb17r15-13~------------|
|-------------------|--------------------------| Her til slut modulerer
|-------------------|--------------------------| sangen en hel tone op
|-------------------|--------------------------| fra C dur til D dur.
|-------------------|--------------------------|



 Slut Omkvæd:
 [D dur, ##]
||: Dmaj7 | F#m7 | Em7 | G/A :|| gentag ad.lib.




 AKKORDER
************
Her har jeg bare foreslået nogle akkorder til en lejrbålsguitarversion.

 Vers
    A   E  D/E    Dmaj7  C#m7  Cm7  Bm7  C#/E  A  C#m7/G#  F#m7  Fmaj7  F/G
:---0---0---2---:---5-----4-----3----2---------0-----4------0-----0------1---:
:---2---0---3---:---7-----5-----4----3----6----2-----5------2-----1------1---:
:---2---1---2---:---6-----4-----3----2----6----2-----4------2-----2------2---:
:---2---2---4---:---7-----6-----5----4----6----2-----6------2-----3------3---:
:---0---2---x---:---5-----4-----3----2----4----0-----x------x-----3------x---:
:-------0---0---:-------------------------0----------4------2-----1------3---:


 Omkvæd (C dur)         Guitar mellemspil              Omkvæd (d dur)
  Cmaj7  Em7  Dm7  F/G      Bb  F/A  C/E  F   C  Bb/C   Dmaj7  F#m7  Em7  G/A
:---7-----7----5----1---:---6----5----3---1---0---1---:---5-----5-----7----5---:
:---8-----8----6----1---:---6----6----5---1---1---3---:---7-----2-----8----5---:
:---9-----7----5----2---:---7----5----5---2---0---3---:---6-----2-----7----6---:
:--10-----9----7----3---:---8----7----5---3---2---x---:---7-----2-----9----7---:
:---x-----7----5----x---:---8----8----3---3---3---3---:---5-----4-----7----0---:
:---8-----0---------3---:---6----5----0---1-----------:---------2-----0--------:




 TEKST
*********
Jeg be'r om mere end jeg kan få,
langt mere end jeg kan nå.
Jeg har temperament for to
og kan ikke falde ti ro.
Og når de andre ser på dig,
tror jeg du går fra mig.
Og mange gange var det mig der blev vred,
og dine tårer løb med min samvittighed.
 
Selv min allerbedste ven
ka' jeg såre tit igen.
Mørket samles i mit sind,
og jeg famler som en blind.
Nu' jeg ked af hvad jeg gav,
ked af al' de ting jeg sagde.
Jeg mente det jo ikke nær så slemt.
Men hvad gør jeg nu?
Bare det hele var glemt.

Jeg ved det godt,
men det' for sent nu.
Jeg ved det godt,
men det' for sent nu.
Ved det egentlig godt,
men det' for sent nu.

Men når jeg falder lidt til ro,
ser jeg du er stadig tro.
Dine kræfter rækker langt,
skønt jeg gør dig livet trangt.
For jeg er stadig fuld af fejl
– dem der gør mig stejl.
Og når jeg vågner ved jeg du har grædt.
Var for hård igen, hvornår bli'r du træt?

Jeg ved det godt,
men det' for sent nu.
Jeg ved det godt,
men det' for sent nu.
Ved det egentlig godt,
for det' for sent nu.


+--------------------------------------------------------------------------+
Jon Sebastian Frederiksen - 9th /September /10
Just mail me at Maitinin@gmail.com with questions, comments and corrections!
Tap to rate this tab
 
# A B C D E F G H I J K L M N O P Q R S T U V W X Y Z