Guitaretab - guitar tabs
Song name
# A B C D E F G H I J K L M N O P Q R S T U V W X Y Z

Rui Veloso - Nunca tab

ZOE-NUNCA-MEMOREXCOMANDER Y EL CORAZON ATOMICO DE LA VIA LACTEA

Esta la sake de una rola de en vivo, es la primera q subo, como no la encontre la sake, 
la subi x si alguien le sirv. je!
Any coment, cuatripieandante@hotmail.com

INTRO

e------------------------------------------------------------|
B--------10h11p10------10h11p10-------10~--------------------|
Gó/9---------------12------------12--------------------------|
D------------------------------------------------------------|
A------------------------------------------------------------|
E------------------------------------------------------------|
[ Tab from: http://www.guitaretab.com/r/rui-veloso/58359.html ]
e------------------------------------------------------------|
B---10h11p10------10h11p10-----------------------------------|
Gó-----------12-------------/9-------------------------------|
D------------------------------------------------------------|
A------------------------------------------------------------|
E------------------------------------------------------------| x3


e---8~---10~---12~-------------------------------------------|
B-------------------11~--------------------------------------|
G------------------------------------------------------------|
D------------------------------------------------------------|
A------------------------------------------------------------|
E------------------------------------------------------------|
Related for Nunca tab