Song name
# A B C D E F G H I J K L M N O P Q R S T U V W X Y Z

Ruiner - Part One tab

Ruiner
Part One Intro
Hell is Empty

standard tuning

-------------------------------|
-------------------------------|
-------------------------------|
-------------------------------|
--7-7-7-7-7-7-7-7-7-7-5-5-5-5--|
--5-5-5-5-5-5-5-6-6-6-3-3-3-3--|


-------------------------------|
-------------------------------|
-------------------------------|
-------------------------------|
--3-3-3-3-3-3-3-3-3-3-3-3-3-3--|
--3-3-3-3-3-3-3-1-1-1-1-3-1-3--|

.

-------------------------------|
-------------------------------|
-------------------------------|
-------------------------------|
--7-7-7-7-7-7-7-7-7-7-5-5-5-5--|
--5-5-5-5-5-5-5-6-6-6-3-3-3-3--|


-------------------------------|
-------------------------------|
-------------------------------|
-------------------------------|
--3-3-3-3-3-3-3-3-3-3-3-3-3-3--|
--3-3-3-3-3-3-3-1-1-1-1-3-1-3--|
Tap to rate this tab
 
# A B C D E F G H I J K L M N O P Q R S T U V W X Y Z