Ruinist - Through The Eyes Of The Deceased tab

    through the eyes of the deceased     Drop D   D A D G B e
Intro Part 1 Clean
||-------------------|-----------------|
||o------10---10-----|-----10---10----o|
||-----9----9----9---|---9----9----9---|     x2 
||---7-------------7-|-7------------7--|
||o------------------|----------------o|
||-------------------|-----------------|

||---------------------------|-------------------------|
||------10---10------------8-|--8------------8---8-----|
||----9----9----9--------7---|7---7--------7---7---7---|
||--7-------------7----5-----|------5----5-----------5-|
||---------------------------|-------------------------|

||------------------------------------|-------------------------------------|
||------10---10------------10---10----|------12---12-------------12--12-----|
||----9----9----9--------9----9----9--|---11---11----11-------11---11---11--|
||--7-------------7----7------------7-|-9---------------9---9--------------9|
||------------------------------------|-------------------------------------|

||------------------------------------|--------------------------------|
||------10---10------------10---10----|-----8---8------------8---8-----|
||----9----9----9--------9----9----9--|---7---7---7--------7---7---7---|
||--7-------------7----7------------7-|-5-----------5----5-----------5-|
||------------------------------------|--------------------------------|
||------------------------------------|--------------------------------|

||------------------------------------|-------------------------------------|
||------10---10------------10---10----|-----12---12-------------12----12----|
||----9----9----9--------9----9----9--|--11---11----11-------11----11----11-|
||--7-------------7----7-------------7|-9--------------9---9---------------9|
||------------------------------------|-------------------------------------|



                     ||------------------|
                     ||---10-------------|
                     ||---9--------------|
                     ||---7--------------|
                     ||------------------|
                     ||------------------|


Intro Part 2(x2) Distorted
e|--------------------------------------------------------------------------|
B|o------------------------------------------------------------------------o|
G|--------------------------------------------------------------------------|
D|--------------------------------------------------------------------------|
A|o-8---7---5--3------3---1---3--5------8---7---5--10------10---12---8--5--o|
E|--8---7---5--3------3---1---3--5------8---7---5--10------10---12---8--5---|

Verse(x2)
e|--------------------------------------------------------------------------|
B|o-------------------------------------------------------------------------|
G|--------------------------------------------------------------------------|
D|--------------------------------------------------------------------------|
A|o-6-5-------------------------5-3---3-2---3/8-6-------------------------10|
E|--6-5-0-0-0-0-0-0-0-0-0-0-0-0-5-3-0-3-2-0-3/8-6-6-6-6-6-6-6-6-6-6-6-6-6-10|
        . . . . . . . . . . . .                   . . . . . . . . . . . .    

       
                          e|---------------|
                          B|---------------|
                          G|---------------|
                          D|---------------|
                          A|-8---8-6---5-8-|
                          E|-8-0-8-6-0-5-8-|
    
e|--------------------------------------------------------------------------|
B|-------------------------------------------------------------------------o|
G|--------------------------------------------------------------------------|
D|--------------------------------------------------------------------------|
A|-6-5-------------------------5-3---3-2---3/8-6-------------------------10-|
E|-6-5-0-0-0-0-0-0-0-0-0-0-0-0-5-3-0-3-2-0-3/8-6-6-6-6-6-6-6-6-6-6-6-6-6-10-|
       . . . . . . . . . . . .                   . . . . . . . . . . . . 

                          e|-------------------|
                          B|-------------------|
                          G|-------------------|
                          D|-------------------|
                          A|-8---8-6---12-10---|
                          E|-8-0-8-6-0-12-10---|

Pre-Chorus(x4)
e|--------------------------------------------------------------------------|
B|--------------------------------------------------------------------------|
G|--------------------------------------------------------------------------|
D|--------------------------------------------------------------------------|
A|---------1-----------0----------------------------------------------------|
E|-0-2-3-4---4-3-2-3-4---4-3-2-3-4-5-4-3-2-3-4-0-2-3------------------------|
   . . . .   . . . . .   . . . . .   . . . . . . . .
Chorus(x2)
                 
e|--------------------------------------------------------------------------|
B|--------------------------------------------------------------------------|
G|--------------------------------------------------------------------------|
D|--------------------------------------------------------------------------|
A|-7----2--3---2---0-------------0-----0-----0-0-7----5--8---7---8----------|
E|-7----2--3---2---0-0-0-0-0-0-0-0-000-0-000-0-0-7----5--8---7---8-8-8-8-8-8|
                   . . . . . . .   ...   ...   .                 . . . . . . 

                          e|---------------------|
                          B|---------------------|
                          G|---------------------|
                          D|---------------------|
                          A|-----8-----8-----8-8-|
                          E|-8-8-8-888-8-888-8-8-|
                             . .   ...   ... .


                (do this for the last part of the chorus)
                          e|-------------------|
                          B|-------------------|
                          G|-------------------|
                          D|-------------------|
                          A|-8-8-8-8-8-8-8-8---|
                          E|-8-8-8-8-8-8-8-8---|
                             . . . . . . .




Solo 1(Joe)

Rhythm Figure 1(over solo)(x4)
e|--------------------------------------------------------------------------|
B|--------------------------------------------------------------------------|
G|--------------------------------------------------------------------------|
D|--------------------------------------------------------------------------|
A|----------------------------------------------1---------------------------|
E|0-0-0-0-0-0-0-0-0-0-0-0-0-0-0-0-0-0-0-0-2-3-4---4-3-2-3-4-----------------|
  . . . . . . . . . . . . . . . . . . . . 


Verse

Pre-Chorus

chorus

Solo 2(Garrett)(you can do some random bullshit for now in the key of D)

Verse

Pre-Chorus

Chorus

Bridge
e|--------------------------------------------------------------------------|
B|--------------------------------------------------------------------------|
G|--------------------------------------------------------------------------|
D|--------------------------------------------------------------------------|
A|-8---8---8--7------7---7---7--5------5---5---5--3------3---3---3--0-------|
E|-8---8---8--7------7---7---7--5------5---5---5--3------3---3---3--0-------|
   .   .   .         .   .   .         .   .   .         .   .   .

Breakdown(Joe does first part. Then you come in on second measure)(x6)
e|--------------------------------------------------------------------------|
B|--------------------------------------------------------------------------|
G|--------------------------------------------------------------------------|
D|--------------------------------------------------------------------------|
A|--------------------------------------------------------------------------|
E|0-0-0-0-0-0-0-0-1-3-0-6-4-7-0-0-0-0-0-0-0-0-1-3-0-6-4-7-------------------|
  . . . . . . . .             . . . . . . . .

e|--------------------------------------------------------------------------|
B|--------------------------------------------------------------------------|
G|--------------------------------------------------------------------------|
D|--------------------------------------------------------------------------|
A|----------------------------6-----------3---------------------------------|
E|0-0-0-0-0-0-0-0-1-3-0-6-4-7-6---0-0-0-0-3---0-0-0-0-----------------------|
  . . . . . . . .                 . . . .     . . . .

Last part of breakdown(second time)
e|--------------------------------------------------------------------------|
B|--------------------------------------------------------------------------|
G|--------------------------------------------------------------------------|
D|-------------3------------------------------------------------------------|
A|6------------1------------------------------------------------------------|
E|6---0-0-0-0------0-0-0-0--------------------------------------------------|



Solo 1(Garrett)(again do random soloing shit for now)

Solo 2(Joe)

[Breakdown is rhythm figure over solo]

Chorus

Bridge to Fade out

================================ TAB Legend ===================================

|  /  slide up
|  \  slide down
|  h  hammer-on 
|  p  pull-off
|  b  bend note 
|  ~  vibrato
|  H  harmonic
|  PH pinch harmonic
|  x  Muted string
|  .  Palm mute


   ruinistmetal.com
Tap to rate this tab
 
# A B C D E F G H I J K L M N O P Q R S T U V W X Y Z