Song name
# A B C D E F G H I J K L M N O P Q R S T U V W X Y Z

Rumbleseat - Rye Whiskey tab

Rumbleseat 

Rye Whiskey

INTRO:
   d u
e|-0-2-2-2-2-5-2-0---------2-5-2------|
B|-3-3-3-3-3-3-3-3-----2-3-3-3-3------|
G|-0---------------2-4-----2-2-2------|
D|-0----------------------------------|
A|------------------------------------|
E|------------------------------------|

VERSE (listen for strumming pattern/timing)
e|-2-2-2-----------------------------|
B|-3-3-3-----------------------------|
G|-2-2-2-----------------------------|
D|---2-------------------------------|
A|-----------------------------------|
E|-----------------------------------|

CHORUS (listen for strumming pattern/timing)
e|-2-2-2---------------2--------------|
B|-3-3-3-2-------------3--------------|
G|-2-2-2-2-------------2--------------|
D|---2---2----------------------------|
A|-------0-------0-2-4----------------|
E|------------------------------------|

If the ocean was whiskey and I was a duck dive to the bottom
e|--------------2------------------0--------------|
B|------------3------------------2----------------|
G|----------2------------------2------------------|
D|--------0------------------2--------------------|
A|------0------------------0----------------------|
E|----0------------------0------------------------|

And never come up
e|---------------2------------------------|
B|---------------3-(play back into verse)-|
G|---------------2------------------------|
D|----------------------------------------|
A|---0-2----4-----------------------------|
E|----------------------------------------|

OUTRO:
   d u
e|-0-2-2-2-2-5-2-0---------2-5-2------|
B|-3-3-3-3-3-3-3-3-----2-3-3-3-3------|
G|-0---------------2-4-----2-2-2------|
D|-0----------------------------------|
A|------------------------------------|
E|------------------------------------|

Tap to rate this tab
# A B C D E F G H I J K L M N O P Q R S T U V W X Y Z