Song name
# A B C D E F G H I J K L M N O P Q R S T U V W X Y Z

Run Dmc - Its Tricky tab

Main riff
e:---------------------|
B:---------------------|
G:--5--------------5---|
D:--3--------------3---|
A:3---3----------3---3-|
E:1---1----------1---1-|

e:----------|
B:----------|
G:----------|
D:----------|
A:8---6/8\6-|
E:6---4/6\4-|

| /  slide up
| \  slide down
| h  hammer-on
| p  pull-off
| ~  vibrato
| +  harmonic
| x  Mute note
Tap to rate this tab
 
# A B C D E F G H I J K L M N O P Q R S T U V W X Y Z