Song name
# A B C D E F G H I J K L M N O P Q R S T U V W X Y Z

Run Dmc - Mary Mary tab

Mary Mary by Run DMC

e-------------------------|
B-------------11----------|
G------8-9-10----8----10--|
D-8-11-------------11-8---|
A-------------------------|
E-------------------------|

This is repeated throughout the song

OUTRO
e---------------------------------------------|
B-------------11------------------11----------|
G------8-9-10----8---------8-9-10----8----10--|
D-8-11-------------11-8-11-------------11-8---|
A---------------------------------------------|
E---------------------------------------------|

Any Corrections please comment
Thanks
Tap to rate this tab
 
# A B C D E F G H I J K L M N O P Q R S T U V W X Y Z