Song name
# A B C D E F G H I J K L M N O P Q R S T U V W X Y Z

Run Dmc - Mary Mary tab

Artist: Run DMC
Song: Mary, Mary
Album: Run DMC Greatest Hits

Tabbed by: Beckett Woodworth
Email: beckett360@yahoo.com

Tuning: Standard

e|-----------6--------|
B|-------4-6---6-4----|
G|--3--6-----------3--|
D|--------------------|
A|--------------------|
E|--------------------|

Alternate way
e|------------------------|
B|-------------11---------|
G|--------8-10----10-8----|
D|--8--11--------------8--|
A|------------------------|
E|------------------------|

Rhythm at about 2:40
e|-----------------|
B|-----------------|
G|--6-6-6-6-5-5-4--|
D|--6-6-6-6-5-5-4--|
A|--4-4-4-4-3-3-2--|
E|-----------------|

Main Rhythm is just an A# chord
e|---|
B|---|
G|---|
D|-8-|
A|-8-|
E|-6-|
Tap to rate this tab
 
# A B C D E F G H I J K L M N O P Q R S T U V W X Y Z