Song name
# A B C D E F G H I J K L M N O P Q R S T U V W X Y Z

Run Dmc - Rock Box tab

|------------------       |-12-----------------------------|
|------------------       |-----------15--15------13-------|
|------------------       |--------------------------------|
|------------------       |--------------------------------|
|-0-2-3----------0-       |--------------------------------|
|--------3-1-3-3---       |--------------------------------|

                          |-15----------------------------|
                          |-----------16--16------14------|
                          |-------------------------------|
                          |-------------------------------|
                          |-------------------------------|
                          |-------------------------------|

                          |-------------------------------|
                          |--5---5--5--5--5-5-5555--7-3*--|
                          |-------------------------------|
                          |-------------------------------|
                          |-------------------------------|
                          |-------------------------------|

                          |------0--1--2--3--5--5/12--12\0-|
                          |-1--3---------------------------|
                          |--------------------------------|
                          |--------------------------------|
                          |--------------------------------|
                          |--------------------------------|


|------------------|
|------------------|
|------------------|
|------------------|
|-0-2-3----------0-|
|--------3-1-3-3---|


|------------------|
|------------------|
|------------------|
|------------------|
|-0-2-3----------0-|
|--------3-1-3-3---|


|------------------|
|------------------|
|------------------|
|------------------|
|-0-2-3----------0-|
|--------3-1-3-3---|


|------------------|
|------------------|
|------------------|
|------------------|
|-0-2-3----------0-|
|--------3-1-3-3---|


|------------------|
|------------------|
|------------------|
|------------------|
|-0-2-3----------0-|
|--------3-1-3-3---|
Tap to rate this tab
 
# A B C D E F G H I J K L M N O P Q R S T U V W X Y Z