Song name
# A B C D E F G H I J K L M N O P Q R S T U V W X Y Z

Run Dmc - Rock Box tab

this is a not so hard song for lead guitar but rythm guitar it little tricky






 Rhythem Guitar                           Lead Guitar (Only 2 Solos Known) 
                              
                                        
e|------------------------------|    |    |-12----------------------------||
B|------------------------------|    |    |-----------15--15------13------||
G|--------------2----2--4--5----|    |    |-------------------------------||
D|-3----5--5----2----2--4--5--5-|    |    |-------------------------------||
A|-3----5--5----0----0--2--3--5-|    |    |-------------------------------||
E|-1----3--3------------------3-|    |    |-------------------------------||
                                     |                                     |
e|------------------------------|    |    |-15----------------------------||
B|------------------------------|    |    |-----------16--16------14------||
G|--------------2----2--4--5----|    |    |-------------------------------||
D|-3----5--5----2----2--4--5--5-|    |    |-------------------------------||
A|-3----5--5----0----0--2--3--5-|    |    |-------------------------------||
E|-1----3--3------------------3-|    |    |-------------------------------||
                                     |                                     |
e|------------------------------|    |    |-------------------------------||
B|------------------------------|    |    |--5---5--5--5--5-5-5555--7-3*--||
G|--------------2----2--4--5----|    |    |-------------------------------||
D|-3----5--5----2----2--4--5--5-|    |    |-------------------------------||
A|-3----5--5----0----0--2--3--5-|    |    |-------------------------------||
E|-1----3--3------------------3-|    |    |-------------------------------||
                                     |                                     |
e|------------------------------|    |    |------0--1--2--3--5--5/12--12\0||
B|------------------------------|    |    |-1--3--------------------------||
G|--------------2----2--4--5----|    |    |-------------------------------||
D|-3----5--5----2----2--4--5--5-|    |    |-------------------------------||
A|-3----5--5----0----0--2--3--5-|    |    |-------------------------------||
E|-1----3--3------------------3-|    |    |-------------------------------||
                                     |                                     |
e|------------------------------|    |                                     |
B|------------------------------|    |                                     |
G|--------------2----2--4--5----|    |                                     |
D|-3----5--5----2----2--4--5--5-|    |                                     |
A|-3----5--5----0----0--2--3--5-|    |                                     |
E|-1----3--3------------------3-|    |                                     |
                                     |                                     |
e|------------------------------|    |                                     |
B|------------------------------|    |                                     |
G|--------------2----2--4--5----|    |                                     |
D|-3----5--5----2----2--4--5--5-|    |                                     |
A|-3----5--5----0----0--2--3--5-|    |                                     |
E|-1----3--3------------------3-|    |                                     |
                                     |                                     |
e|------------------------------|    |                                     |
B|------------------------------|    |                                     |
G|--------------2----2--4--5----|    |                                     |
D|-3----5--5----2----2--4--5--5-|    |                                     |
A|-3----5--5----0----0--2--3--5-|    |                                     |
E|-1----3--3------------------3-|    |                                     |
               
Tap to rate this tab
 
# A B C D E F G H I J K L M N O P Q R S T U V W X Y Z