Song name
# A B C D E F G H I J K L M N O P Q R S T U V W X Y Z

Run Kid Run - Sure Shot tab

|-------------------------------------|
|-------------------------------------|
|--8-8\7-7--7b-7p5-8-8\7-7--7b-7p5----|
|---------8~------8-------8~------8---|
|-------------------------------------|
|-------------------------------------|

|-------------------------------------|
|-8-8\6/9\8----8-8\6------------------|
|----------8-7------7-8~-7b-----------|
|-------------8-----------------------|
|-------------------------------------|
|-------------------------------------|
 Play this 2 times. At the end of the second time, play this:
|-------------------------------------|
|-------------------------------------|
|-8v~-7v~-5v~-------------------------|
|-------------8v~---------------------|
|-------------------------------------|
|-------------------------------------|

/\= slide up and down
 B=bend
 V=vibrato
There ya go. ill post the rest of the song when I figure it out 
Tap to rate this tab
 
# A B C D E F G H I J K L M N O P Q R S T U V W X Y Z