Song name
# A B C D E F G H I J K L M N O P Q R S T U V W X Y Z

Runaways - Cherry Bomb tab

This is Lita Ford's solo

Any comments are to be made to canadian_charlie@hotmail.com

  full bends
    ^  ^
-----------------------------------------------------------------------|
---14--14--14--11--14-------11---^-------------------------------------|
-----------------------13-------13/15----------6--8--8--6--8--6--8^6---|
----------------------------------------8------------------------------|
-----------------------------------------------------------------------|
-----------------------------------------------------------------------|


                      Full bends                  full bend
                       ^       ^                      ^
----------------------------------------------6---9---9-----------------|
-----------------------9-6--9--9---------9------------------------------|
------6-----------------------------------------------------------------|
---8-----8--8^6----6----------------------------------------------------|
-----------------8------------------------------------------------------|
------------------------------------------------------------------------|


 full bend                   full bend
    ^                            ^
----9---6---9---6---------6----------------------------------------------|
---------------------9-----------9---------------------------------------|
-------------------------------------------------------------------------|
-------------------------------------------------------------------------|
-------------------------------------------------------------------------|
-------------------------------------------------------------------------|
Tap to rate this tab
 
# A B C D E F G H I J K L M N O P Q R S T U V W X Y Z