Song name
# A B C D E F G H I J K L M N O P Q R S T U V W X Y Z

Runaways - Queens Of Noise tab

Artist: The Runaways
Album: Queens Of Noise
Song: Queens Of Noise


Tabbed By: Rebeca Renteria
e-mail: gumy_rebe@hotmail.com




INTRO

e------------------------------------------------------------------|
B------------------------------------------------------------------|
G------------------------------------------------------------------|  x2
D-----4--------7--------7----------7----------7----------7---------|
A-----4--------7--------7---9-9----7---9-9----7---9-9----7---9-9---|
E-----2--------5--------5---7-7----5---7-7----5---7-7----5---7-9---|
                            . .        . .        . .        . .


e---------------|
B---------------|
G---------------|  
D-----4--7------|
A-----4--7------|
E-----2--5------|




VERSE

e---------------------------------------|----------------------------------|
B---------------------------------------|----------------------------------|
G---------------------------------------|----------------------------------| 
D---9-9---9-9-9---9-9-9---9-9-9-----7---|---9-9-9---9-9-9---9-9-9---9-9-9--|
A---7-7---7-7-7---7-7-7---7-7-7-----7---|---7-7-7---7-7-7---7-7-7---7-7-7--|
E-----------------------------------5---|----------------------------------|
 PM . .   . . .   . . .   . . .            . . .   . . .   . . .   . . .




PRE CHORUS

e-----------------------------------------|
B-----------------------------------------|
G---------------------------6-6-6-6-6-----|  
D---9-----7-----9-----7-----6-6-6-6-6-----|
A---9-----7-----9-----7-----4-4-4-4-4-----|
E---7-----5-----7-----5-------------------|




CHORUS

e----------------------------------|
B----------------------------------|
G------------------------9---------|  x5
D-------------------9-9--9--9------|
A---4-4---4-4-4-----9-9--7--9------|
E---2-2---2-2-2-----7-7-----7------|




INTRO
VERSE
PRE CHORUS
CHORUS
INTRO




BRIDGE (Solo Synth)

e-----------------|
B-----------------|
G---6-6-6-6-6-----|  
D---6-6-6-6-6-----|
A---4-4-4-4-4-----|
E-----------------|



CHORUS



Tap to rate this tab
# A B C D E F G H I J K L M N O P Q R S T U V W X Y Z