Song name
# A B C D E F G H I J K L M N O P Q R S T U V W X Y Z

Runaways - American Nights tab

Artist: The Runaways
Album: The Runaways
Song: American Nights


Tabbed By: Rebeca Renteria
e-mail: gumy_rebe@hotmail.com



INTRO

e------------------------------------------|
B------------------------------------------|
G-----------4-4--2-2-----------------------|  
D-----2-2---4-4--2-2--x-x-x-x-x-x----------|  x4
A-----2-2---2-2--0-0--x-x-x-x-x-x----------|
E-----0-0----------------------------------|



VERSE

e----------------------------------------|
B----------------------------------------|
G----------4---2-2-----------------------|  
D-----2----4---2-2--x-x-x-x-x-x----------|  x8
A-----2----2---0-0--x-x-x-x-x-x----------|
E-----0----------------------------------|



CHORUS

e-----------------------|
B-----------------------|
G--------------7--------|  
D-----2-----7--7--7-----|  x4
A-----2-----7--5--7-----|
E-----0-----5-----5-----|



INTRO
VERSE
CHORUS
INTRO



BRIDGE

e------------------------------------------|
B------------------------------------------|
G-----------6-6--4-4-----------------------|  
D-----4-4---6-6--4-4--x-x-x-x-x-x----------|  x4
A-----4-4---4-4--2-4--x-x-x-x-x-x----------|
E-----2-2----------------------------------|



SECOND CHORUS

e-----------------------|
B-----------------------|
G--------------9--------|  
D-----4-----9--9--9-----|  x4
A-----4-----9--7--9-----|
E-----2-----7-----7-----|




e----------|
B----------|
G----------|  After this, is only bass and drums.
D-----4----|  Everybody, Wanna Party....
A-----4----|
E-----2----|




SECOND CHORUS
BRIDGE



End

e--------|
B--------|
G--------|  
D---4----|  
A---4----|
E---2----|
Tap to rate this tab
# A B C D E F G H I J K L M N O P Q R S T U V W X Y Z