Song name
# A B C D E F G H I J K L M N O P Q R S T U V W X Y Z

Runaways - Cherry Bomb tab

Listen to the song, to play it right.

Verse 1
e|---------------------------------------------|
B|---------------------------------------------|
G|-------------------------------------------7-| 3x
D|-9-9-9-9-9-9-9-9-9-9-9-9-9-9-9-9-9-9-9-9-9-7-|
A|-9-9-9-9-9-9-9-9-9-9-9-9-9-9-9-9-9-9-9-9-9-5-|
E|-7-7-7-7-7-7-7-7-7-7-7-7-7-7-7-7-7-7-7-7-7---|
 the whole verse is that, expept on the last word of the verse you don't play D (x755xx)

Chorus
e|---------------------------------------------|
B|---------------------------------------------|
G|-------------------------------------9-------| 2x
D|-4-4-4-4-4-4-7-7-7-7-7-7-9-9-9-9-9-9-9-9-9-9-|
A|-4-4-4-4-4-4-7-7-7-7-7-7-9-9-9-9-9-9-7-9-9-9-|
E|-2-2-2-2-2-2-5-5-5-5-5-5-7-7-7-7-7-7---7-7-7-|

Verse 2 is the same than Verse 1

Chorus

Solo
e|---------------------------------------------|
B|---------------------------------------------|
G|---------------------------------------------|
D|-9-9-9-9-9-9-9-9-9-9-9-9-9-9-9-9-9-9-9-9-9-9-|
A|-9-9-9-9-9-9-9-9-9-9-9-9-9-9-9-9-9-9-9-9-9-9-|
E|-7-7-7-7-7-7-7-7-7-7-7-7-7-7-7-7-7-7-7-7-7-7-|

Chorus

Verse 3 changes higher
e|---------------------------------------------|
B|---------------------------------------------|
G|-------------------------------------------9-| 3x
D|-11-11-11-11-11-11-11-11-11-11-11-11-11-11-9-|
A|-11-11-11-11-11-11-11-11-11-11-11-11-11-11-7-|
E|--9--9--9--9--9--9--9--9--9--9--9--9--9--9---|

Chorus changes higher too
e|----------------------------------------------|
B|----------------------------------------------|
G|-------------------------------------------11-|
D|-6-6-6-6-6-6-9-9-9-9-9-9-11-11-11-11-11-11-11-|
A|-6-6-6-6-6-6-9-9-9-9-9-9-11-11-11-11-11-11--9-|
E|-4-4-4-4-4-4-7-7-7-7-7-7--9--9--9--9--9--9----|

Tap to rate this tab
 
# A B C D E F G H I J K L M N O P Q R S T U V W X Y Z